Oops, an error
Loading. Please wait.

Coma Black bass

version 1
version 1

Whole song

Interactive

3,221 views 12 this week
2 commentsread comments
1 2 3 4 5
x 3
add to favorites
×
Save as Personal and add changes to this tab that will be seen only by you. Learn more ›
×
You can save this tab as Personal to edit and correct it or add notes. All changes will be seen only by you. Learn more »
launch autoscroll
font size
0
reset
guitar tuner
edit
Autoscroll
slow
fast
+/-
esc
set tempo
stop
Author
Coma Black - Marilyn Manson

By: Jon Craven (i_apathy@hotmail.com)
For questions, comments, feedback, an outline of the timing, write the above
address.

Notes:
  -Played with a pick.
  -The tempo seems between 75 and 76 bpm; using a metrinome, you'll notice it
seems off.

(4/4)(75 bpm)
Standard tuning

/ - slide up
r - eighth rest
R - quarter rest
* - note held for an eighth beat

A) Eden Eye

Pre-chorus: (1:01)
|----------------|----------------|----------------|----------------|
|----------------|----------------|----------------|----------------|
|----------------|----------------|----------------|----------------|
|5-5-5-5-5-5-5-5-|5-5-5-5-5-5-5-5-|5-5-5-5-5-5-5-5-|5-5-5-5-5-5-5-5-|

|----------------|----------------|------------------------|----------------|
|----------------|----------------|------------------------|----------------|
|----------------|----------------|------------------------|----------------|
|5-5-5-5-5-5-5-5-|5-5-5-5-5-5-5-5-|10-10-10-10-10-10-10-10-|8-8-8-8-8-8-7-7-|

Chorus: (x2)(1:26)
|----------------|----------------|-----------------------|----------------|
|----------------|----------------|-----------------------|----------------|
|----------------|----------------|-----------------------|----------------|
|0-0-0-0-0-0-0-0-|3-3-3-3-3-3-3-3-|5/10-10-10-10-10-10-10-|8-8-8-8-8-8-8-8-|

Rest for twelve measures
Chorus (x2)

Bridge: (x4)(2:56)
|----------------|
|----------------|
|----------------|
|5-5-5-5-5-5-5-5-|

Pre-chorus
Chorus (x4)

B) The Apple of Discord (4:26)

Verse: (x3)(5:17)
|-----------------|-------------------|
|-----------------|-------------------|
|-----------------|-------------------|
|0---r-12-R---R---|0---r-12-r-10-12---|

Outro: (5:36)                                        (hold till end)
|----------------|------------------|----------------|----------------|
|----------------|------------------|----------------|----------------|
|----------------|------------------|----------------|----------------|
|8-*-*-*-3-*-*-*-|0-*-*-*-r-10-12---|8-*-*-*-3-*-*-*-|0-*-*-*-*-*-*-*-|

            
            
Suggest correction
Creating personal tab
Creating personal tab
You can edit any tab online and save it as your Personal.

You can edit, replace or remove any tab part or add personal notes – all changes will be seen only by you.

Personal tabs can be accessed anytime from any device, even offline.
Learn more »
Give kudos to tab author, rate the tab!
1 2 3 4 5
comments
print report bad tab
2 comments total.
0 reply
jammoe 61 Mar 16, 2005 07:00 PM

The outro is a bit off, it's more like

E|0---12p10--|0---12p10-10h12|0---12p10--|0---12p10-10h12|

E|0---12p10--|0---12p10-10h12|8---3---|0---12p10-10h12|8---3---|0----

to the end of the song. Otherwise, great song, great tab.

0 reply
read2906 242 Oct 30, 2006 11:28 PM

hey man love ur stuff, keep up the good work!

guest
You may want to rate the tab now too:
select rating
Wanna post a correction for this tab? Suggest correction