Oops, an error
Loading. Please wait.

Four Rusted Horses bass

version 1
version 1

Whole song

Interactive

4,171 views 1 this week
no commentswrite comment
1 2 3 4 5
x 5
add to favorites
×
Save as Personal and add changes to this tab that will be seen only by you. Learn more ›
×
You can save this tab as Personal to edit and correct it or add notes. All changes will be seen only by you. Learn more »
launch autoscroll
font size
0
reset
guitar tuner
edit
Autoscroll
slow
fast
+/-
esc
set tempo
stop
Author
Band: Marilyn Manon
Song: Four Rusted Horses
Album: We're From America
Tuning: Standard

The bass comes in after second measure of the guitar. The guitars intro/ main riff can 
broken down into two parts that repeat themselves; the bass can be easily played with it 
on single riff that repeats itself entirely over the guitars two parts. Play it three times.

G-------------------------------------------------------------------|
D-------------------------------------------------------------------|
A-------------------------------------------------5--5--5--5--------|
E--0--0--0--0--0--0--0--0--0--0--0--0-------------------------------|

here is the chorus, which is played a bit faster.

G-------------------------------------------------------------|
D-------------------------------------------------------------|
A--3-3-3-3-3-3-3-3-3-3----------------------------------------| played two times.
E-------------------------------0-0-0-0-0-0-0-0-0-0-----------|

Repeat verse 3 times, then chorus 2 times.

Bridge

G------------------------------------------------------------------------|
D------------------------------------------------------------------------|play 2 times
A--------------------5-5-5-5-5-5-----------------------------------------|
E--3-3-3-3-3-3--------------------0-0-0-0-0-0-0-0-0-0-0-0----------------|

Repeat verse verse three times and play chorus 2 times.

Bridge is played 4 times.

Then you can finally end on verse played four times and end on an open E note.

            
            
Suggest correction
Creating personal tab
Creating personal tab
You can edit any tab online and save it as your Personal.

You can edit, replace or remove any tab part or add personal notes – all changes will be seen only by you.

Personal tabs can be accessed anytime from any device, even offline.
Learn more »
comments
print report bad tab
guest
You may want to rate the tab now too:
select rating
Wanna post a correction for this tab? Suggest correction