Oops, an error
Loading. Please wait.

Fundamentally Loathsome tab

version 2
version 2

Whole song

Interactive

5,710 views 12 this week
2 commentsread comments
1 2 3 4 5
x 6
add to favorites
×
Save as Personal and add changes to this tab that will be seen only by you. Learn more ›
×
You can save this tab as Personal to edit and correct it or add notes. All changes will be seen only by you. Learn more »
launch autoscroll
font size
0
reset
how to read this tab
guitar tuner
edit
Autoscroll
slow
fast
+/-
esc
set tempo
stop
Author
Song:Fundamentally Loathsome
tunning: standard

h:hammer on
p:pull off
/:slide down
\:Slide up
~:vibrator
( ):Hold it and let note ring out
b:full bend up

I haven't seen a guitar tab for this song, which there really isn't much to tab, but I 
decided to transcribe M.W. Gacy's part to guitar. I asure you that If you play the 
notes and chords in place of the piano, it is  100% accurate.
                                  Verse 1


e-----------7--7----------7--7----------7--7--6--5--3-3-3-3----------|
b---13--13--8--8--13--13--8--8--13--13--8--8--7--6--5-5-5-5--5-6-7-8-|
g---14--14--------14--14--------14--14-------------------------------|
d--------------------------------------------------------------------|
A--------------------------------------------------------------------|
E--------------------------------------------------------------------|

                                Chorus
e--7--7--7--7-----------10--10------------7--7------3-3-3-------------|
b--8--8--8--8--5-4-3-2--12--12--12-11-10--8--8--11--5-5-5--6--5-6-7-8-|
g-----------------------------------------------11---------7----------|
d---------------------------------------------------------------------|
A---------------------------------------------------------------------|
E---------------------------------------------------------------------|

                              Verse 2
e----------7--7----------7--7----------7--7--6--5--3--3--------6--3-|
b--13--13--8--8--13--13--8--8--13--13--8--8--7--6--5--5--5--6--7--5-|
g--14--14--------14--14--------14--14--------------------6--7-------|
d-------------------------------------------------------------------|
A-------------------------------------------------------------------|
E-------------------------------------------------------------------|

                              Chorus
e--7--7--7--7-----------10--10------------7--7------3-3-3-------------|
b--8--8--8--8--5-4-3-2--12--12--12-11-10--8--8--11--5-5-5--6--5-6-7-8-|
g-----------------------------------------------11---------7----------|
d---------------------------------------------------------------------|
A---------------------------------------------------------------------|
E---------------------------------------------------------------------|

now here comes the guitar solo, this is takes a bit more practice, just listen to the 
and you'll get it.


e--------------------------------------------------------------12b-(12)--|
b-------------------------------------------------------------12---------|
g------------------------------------------------12b--9~~~~9~9~----------|
d----7p5-------------------------7h9p7--11-12----------------------------|
A----------7-5-------4/7~~~~--7------------------------------------------|
E--------------7-5-0-----------------------------------------------------|


e----14b--12~~---12-14--12-10-12~-12/14-14-14-12-10b-12~~-10---------|
b------------------------------------------------------------12b-----|
g--------------------------------------------------------------------|
d--------------------------------------------------------------------|
A--------------------------------------------------------------------|
E--------------------------------------------------------------------|


e-----------------------------------------------------------------12/14-14---|
b----8p7h8p7h8-10b-(10)-10p8-----------------9b---11b------------------------|
g--------------------------9~~~~~~~9~~~~~~--11b---13b--9-11/12~~-9~~---------|
d----------------------------------------------------------------------------|
A----------------------------------------------------------------------------|
E----------------------------------------------------------------------------|


e----14-16-14-12-10~~12-10----------------------------------------------|
b--------------------------12~~10h11p10h11p10---------------------------|
g--------------------------------------------12-9-8/9--3/4~~~~~-0-1/2-4-|
d-----------------------------------------------------------------------|
A-----------------------------------------------------------------------|
E-----------------------------------------------------------------------|

e---------------------------------------------------------------------|
b---------------------------------------------------------------------|
g----7-9-11/12-12-11-12/14-12-12~~~~~~~~~~~~~~------------------------|
d---------------------------------------------------------------------|
A---------------------------------------------------------------------|
E---------------------------------------------------------------------|

the guitar becomes more quite after the solo but if you listen carefully you can here 
last the measures being played or you could play the power cords C,B,A then A,B,C in that 
during the "...shoot myself for loving you part"instead.
Wel that is it. it's 100's accurate!
tabbed by:ZombieChrist

            
            
Suggest correction
Creating personal tab
Creating personal tab
You can edit any tab online and save it as your Personal.

You can edit, replace or remove any tab part or add personal notes – all changes will be seen only by you.

Personal tabs can be accessed anytime from any device, even offline.
Learn more »
comments
print report bad tab
2 comments total.
0 reply
cath 5 10 Mar 24, 2009 03:55 PM

great tab man, thanks alot

0 reply
swave75 382 Aug 23, 2011 04:24 PM

Very very cool!!!!

guest
You may want to rate the tab now too:
select rating
Wanna post a correction for this tab? Suggest correction