Oops, an error
Loading. Please wait.

I Dont Like The Drugs But The Drugs Like Me tab

version 2
version 2

Whole song

Interactive

15,421 views 48 this week
no commentswrite comment
1 2 3 4 5
x 5
add to favorites
×
Save as Personal and add changes to this tab that will be seen only by you. Learn more ›
×
You can save this tab as Personal to edit and correct it or add notes. All changes will be seen only by you. Learn more »
launch autoscroll
font size
0
reset
how to read this tab
guitar tuner
edit
Autoscroll
slow
fast
+/-
esc
set tempo
stop
Author
Difficulty
    I Don't Like The Drugs (But the Drugs Like Me) - Marilyn Manson
----------------------------------------------------------------------------

Tabbed by: ironmanben
Email: superclam500@yahoo.com

Tuning: e B G D A E

intro:
e|------------------------------------------------------|-------------|
B|------------------------------------------------------|-------------|
G|------------------------------------------------------|-77777777----|
D|--4-4--------------------4-4---------------------7-7--|-------------|
A|--4-4--------------------4-4---------------------7-7--|-------------|
E|--2-2--------------------2-2---------------------5-5--|-------------|
I don't like the drugs..I don't like the drugs the drugs...^do this quietly

intro to verse x2
use delay if possible so it echos
e|-----------------------------------------------------22222-|
B|-----------------------------------------------------------|
G|--------------------------1-2------------------------------|
D|--4-2-4--4-2--2h4-2-4---4------4-2-4--4-2--2h4-2-4--4------|
A|-----------------------------------------------------------|
E|-----------------------------------------------------------|
 |                                                           |
e|-----------------------------------------------------------|
B|-----------------------------------------------------------|
G|-----------------------------------------------------------|
D|--4---2---2------2-------------4---2---2------2------------|
A|-----------------------------------------------------------|
E|-----------------------------------------------------------|

the actual verse:
x4
e|-------------------|
B|-------------------|
G|-------------------|
D|-4-2-4--4-2--4-2---|
A|-------------------|
E|-------------------|
 |                   |
e|-------------------|
B|-------------------|
G|-------------------|
D|--4---2---2------2-|
A|-------------------|
E|-------------------|

pre-chorus x2
e|-------------------------------------------------|-----------|
B|-------------------------------------------------|-----------|
G|/13~----/16~----/13~---/11~9~/13~--/16~------/13~|-/11~-12---|
D|-------------------------------------------------|-----------|
A|-------------------------------------------------|-----------|
E|-------------------------------------------------|-----------|
 |                                                  ^skip this the second time
e|---------------------------------------------------------|---|
B|---------------------------------------------------------|---|
G|-6---6---9---9---6---6---4-5-6---6---9---9---6---6-------|---|
D|-6---6---9---9---6---6---4-5-6---6---9---9---6---6---2-3-|-4-|
A|-4-444-447-777-774-444-442-3-4-444-447-777-774-444---2-3-|-4-|
E|-----------------------------------------------------0-1-|-2-|
                                                            ^at the end of the second time only
chorus:
e|----------------------------------------------|
B|----------------------------------------------|
G|----------------------------------------------|
D|-4-4--4-4--4-4-----7-9--4-4--4-4--4-4-----9-7-|
A|-4-4--4-4--4-4-----7-9--4-4--4-4--4-4-----9-7-|
E|-2-2--2-2--2-2-0-2-5-7--2-2--2-2--2-2-0-2-7-5-|
                  ^You could also make these two notes full chords instead.

the rest of the chorus:
e|----------------------------------------------|
B|-------------------------------------------7--|
G|-----------------------------------------6----|
D|-4-4--4-4--4-4-----7-9---4-4------7-7--4------|
A|-4-4--4-4--4-4-----7-9---4-4------7-7---------|
E|-2-2--2-2--2-2-0-2-5-7---2-2------5-5---------|

then do this:

pre-chorus x2
chorus

bridge x4
e|-----------------|
B|-1~-----------2~-|
G|-------3~--------|
D|-----------------|
A|-----------------|
E|-----------------|

intro x2
chorus all the way out.  Varies between 1st and second lines of posted chorus.


| /  slide up
| \  slide down
| h  hammer-on
| p  pull-off
| ~  vibrato
| +  harmonic
| x  Mute note
===============================================================================

            
            
Suggest correction
Creating personal tab
Creating personal tab
You can edit any tab online and save it as your Personal.

You can edit, replace or remove any tab part or add personal notes – all changes will be seen only by you.

Personal tabs can be accessed anytime from any device, even offline.
Learn more »
comments
print report bad tab
guest
You may want to rate the tab now too:
select rating
Wanna post a correction for this tab? Suggest correction