Oops, an error
Loading. Please wait.

Irresponsible Hate Anthem bass

version 3
version 3

Whole song

Interactive

5,954 views 1 this week
3 commentsread comments
1 2 3 4 5
x 7
add to favorites
×
Save as Personal and add changes to this tab that will be seen only by you. Learn more ›
×
You can save this tab as Personal to edit and correct it or add notes. All changes will be seen only by you. Learn more »
launch autoscroll
font size
0
reset
guitar tuner
backing track
0:00
0:00
edit
Autoscroll
slow
fast
+/-
esc
set tempo
stop
Author
Irresponsible Hate Anthem - Marilyn Manson

By: Jon Craven (i_apathy@hotmail.com)
For questions, comments, feedback, an outline of the timing, write the above
address.

Notes:
  -Played with a pick.
  -Twiggy doesn't take his index finger off the E string (except on open
notes).
  -A measure in the intro/pre-chorus and the outro has been expanded by one
space; the notes are still 16th notes.

(4/4)(94 bpm)
Standard tuning

* - note held for an eighth beat
R - quarter rest

Intro (pre-chorus): (0:35)
|----------------|----------------|----------------|
|----------------|----------------|----------------|
|----------------|----------------|----------------|
|2225557788877755|2225557700000011|2225557788877755|

|----------------------------------------|
|----------------------------------------|
|----------------------------------------|
|2-2-2-5-5-5-7-7-12-12-12-12-12-12-13-13-|

Verse (fill): (x4)(0:45)
|----------------|----------------|
|----------------|----------------|
|----------------|----------------|
|2225557788877755|2225557700000011|

Pre-chorus
Verse (x4)
Pre-chorus

Chorus: (x2)(1:46)
|----------------|----------------|----------------|----------------|
|----------------|----------------|----------------|----------------|
|----------------|----------------|----------------|----------------|
|2---8-7---5-7-5-|2---8-7---5-7-5-|2---8-7---5-7-5-|0-*-*-*-*-*-1---|

Fill (x2)
Verse (x4)
Pre-chorus
Chorus (x2)

Bridge: (x6)(3:08)
|----------------|----------------|
|----------------|----------------|
|----------------|----------------|
|2222222222222222|2222222222887755|

Pre-chorus

Outro: (3:49)
|----------------|----------------|----------------|----------------|
|----------------|----------------|----------------|----------------|
|----------------|----------------|----------------|----------------|
|2228887777557755|2228887777557755|2228887777557755|2228887777557755|

|----------------|----------------|----------------|
|----------------|----------------|----------------|
|----------------|----------------|----------------|
|2228887777557755|2228887777557755|2228887777557755|

|------------------------------------------------|----------------|
|------------------------------------------------|----------------|
|------------------------------------------------|----------------|
|12-12-12-12-12-12-12-12-12-12-12-12-13-13-13-13-|2---2---2---2---|

|----------------|
|----------------|
|----------------|
|2---R---R---R---|

Rest till end

            
            
Suggest correction
Creating personal tab
Creating personal tab
You can edit any tab online and save it as your Personal.

You can edit, replace or remove any tab part or add personal notes – all changes will be seen only by you.

Personal tabs can be accessed anytime from any device, even offline.
Learn more »
comments
print report bad tab
3 comments total.
0 reply
PsychoGAA 52 Jul 30, 2010 07:05 PM

u can see at some video, Twiggy use the A string for the main riff
like:
A:-----0-0-0-2-2-3-3- etc...
E:2-2-2--------------

0 reply
PsychoGAA 52 Jul 30, 2010 07:11 PM

u can see at this video: youtu.be/FzLNah7rcLg, Twiggy use the A string, too, for the main riff
like:
A:-----0-0-0-2-2-3-3- etc...
E:2-2-2--------------

0 reply
PsychoGAA 52 Jul 30, 2010 07:22 PM

sorry, now I see, it's Tim Skold at the video,

guest
You may want to rate the tab now too:
select rating
Wanna post a correction for this tab? Suggest correction