Oops, an error
Loading. Please wait.

Personal Jesus tab

version 4
version 4

Whole song

Interactive

14,883 views 12 this week
no commentswrite comment
1 2 3 4 5
x 5
add to favorites
×
Save as Personal and add changes to this tab that will be seen only by you. Learn more ›
×
You can save this tab as Personal to edit and correct it or add notes. All changes will be seen only by you. Learn more »
launch autoscroll
font size
0
reset
how to read this tab
guitar tuner
edit
Autoscroll
slow
fast
+/-
esc
set tempo
stop
MARILYN MANSON- Personal Jesus

Tabbed by: Javo TABDIRECT.PICZO.COM
This Tab goes throughout the whole song the words just change
Tuning:(Standard)

e|---------------|---------------|---------------|---------------|
B|---------------|---------------|---------------|---------------|
G|---------------|---------------|------------- -|---------------|
D|---------------|---------------|--------4------|--------4------|
A|---------------|---------------|---------------|---------------|
E|---------------|---------------|-2-5-2-----5-2-|-2-5-2-----5-2-|

e|---------------|-------------------|---------------|
B|---------------|-------------------|---------------|
G|---------------|-------------------|---------------|
D|--------4------|------------4------|--------4------|
A|---------------|-------------------|---------------|
E|-2-5-2-----5-2-|-<2>-2-5-2-----5-2-|-2-5-2-----5-2-|
         Your Own      Personal        Jesus

e|---------------|---------------|---------------|-----------------------|
B|---------------|---------------|---------------|-----------------------| 
G|---------------|---------------|------------- -|-----------------------|
D|--------4------|--------4------|--------4------|--------------4--------|
A|---------------|---------------|---------------|-----------------------|
E|-2-5-2-----5-2-|-2-5-2-----5-2-|-2-5-2-----5-2-|-2-2-2--5--2-----5--2--|
Someone to hear your prayers       Your Own Personal        Jesus
              Someone who cares
                                                       
e|---------------|---------------|
B|---------------|---------------| 
G|---------------|---------------|
D|--------4------|--------4------|
A|---------------|---------------|
E|-2-5-2-----5-2-|-2-5-2-----5-2-|
Someone to hear your prayers       
              Someone who's there

e|---------------|---------------|-----------------------|
B|---------------|---------------|-----------------------| 
G|---------------|---------------|-----------------------|
D|--------4------|--------4------|--------------4--------|
A|---------------|---------------|-----------------------|
E|-2-5-2-----5-2-|-2-5-2-----5-2-|-2-2-2--5--2-----5--2--|
Feeling Unknown                   and you're
                                        all alone
 G                          D         Am                        

    Flesh and bone by the     telephone lift up the reciever 

B7
I'll make you a believer


            
            
Suggest correction
Creating personal tab
Creating personal tab
You can edit any tab online and save it as your Personal.

You can edit, replace or remove any tab part or add personal notes – all changes will be seen only by you.

Personal tabs can be accessed anytime from any device, even offline.
Learn more »
comments
print report bad tab
guest
Wanna post a correction for this tab? Suggest correction