Oops, an error
Loading. Please wait.

President Dead tab

version 2
version 2

Whole song

Interactive

2,400 views 1 this week
1 commentread comment
1 2 3 4 5
x 4
add to favorites
×
Save as Personal and add changes to this tab that will be seen only by you. Learn more ›
×
You can save this tab as Personal to edit and correct it or add notes. All changes will be seen only by you. Learn more »
launch autoscroll
font size
0
reset
how to read this tab
guitar tuner
backing track
0:00
0:00
edit
Autoscroll
slow
fast
+/-
esc
set tempo
stop
Author
Difficulty
-------------------------------------------------------------------------------
                             President Dead - Marilyn Manson
-------------------------------------------------------------------------------
Tabbed by: Dominick L. (Luizza69)
Email: pirating.pirate@gmail.com

Tuning: Standard

Another Manson song and the best cover song to play at a gig.
I didnt do the solo because i dont like the sound and on top of that I usually improvise.
So here it is.

Intro :
E|-----------------------------------------|
B|--------11-11-11-11b12r11-11-------------|
G|---------x--x--x-------------10-10-10-10-|
D|-5---2---8--8--8-------------------10-10-|
A|-5---2-----------------------------------|
E|-3---0-----------------------------------|
Distortion (Get high on violence, baby)

B|-------------------|
G|-7---------7/9-9-\-|
D|-7---------7/9-9-\-|
A|-5---------5/7-7-\-|
E|-------------------|
Distortion (And we don't want to live forever..)

* = play note 8 times
E|----------------------------------|
B|----------------------------------|
G|--------5-------------------------|
D|--*7---*5----*5---4-4-4-4-3-3-3-3-|
A|--*7---*3----*5---4-4-4-4-3-3-3-3-|
E|--*5---------*3---2-2-2-2-1-1-1-1-|
Second verse (Give the pills time to work..)

Figure out the timing
E|------------------------------|
B|------------------------------|
G|------------------------------|
D|-5---2--x-x----x--x-x-x-2---5-|
A|-5---2--x-x----x--x-x-x-2---5-| (repeat)
E|-3---0--x-x----x--x-x-x-0---3-|

This is played towards the end. clean guitar (This is for the people, they want it)
This can be played for this bit, just before the solo/interlude

B|--------------|
G|-4------------|
D|-4----------2-|
A|-2----------2-|
E|------------0-|

Thats pretty much it, any questions PM me


            
            
Suggest correction
Creating personal tab
Creating personal tab
You can edit any tab online and save it as your Personal.

You can edit, replace or remove any tab part or add personal notes – all changes will be seen only by you.

Personal tabs can be accessed anytime from any device, even offline.
Learn more »
comments
print report bad tab
1 comment total.
0 reply
jonasdill6 10 May 24, 2015 11:12 AM

yeah ihr opfer, es ist ein wirklich guter song

guest
You may want to rate the tab now too:
select rating
Wanna post a correction for this tab? Suggest correction