Oops, an error
Loading. Please wait.
We have an official The Fight Song tab made by UG professional guitarists. Check out the tab »
×

The Fight Song guitar pro

version 1
version 1

Whole song

11,843 views 3 this week
4 commentsread comments
1 2 3 4 5
x 6
add to favorites
guitar tuner
Autoscroll
slow
fast
+/-
esc
set tempo
stop
"The Fight Song"
demo version
Play now

or get full version for Free

×
Get full version now!
Learn and play this song
in Tab Pro
Try for free

or get $10 off Welcome Bonus

Get welcome bonus
Get access to Tab Pro version of “The Fight Song”!
Tab Pro is a premium guitar tab service, available on PC, Mac, iOS and Android
TRY FOR FREE
Your download will start in 7 seconds
×
Like this song? We have more! Follow us on Facebook for daily tips, lessons and other guitar-related content.
To download “The Fight Song” Guitar Pro tab click button below
Please note that you must have Guitar Pro software installed on your
computer in order to view this file.
Suggest correction
comments
report bad tab
4 comments total. Showing first comments.
0 reply
Love_METAL 165 Sep 11, 2006 10:14 AM

the intro and verse is wrong

0 reply
The Eyebrow 258 Aug 22, 2007 09:46 AM

the clean part is as follows, all notes are equal quavers:


|----9-------------------|------This bar x3---------|
|------------------------|--------------------------|
|------------------------|--------------------------|
|-11----9--9-11-14-14-14-|-11-11--9--9-11--14-14-14-|
|--9----7--7--9-12-12-12-|--9--9--7--7--9--12-12-12-|
|------------------------|--------------------------|

|-------------------------|
|-------------------------|
|-------------------------|
|-11-11--9--9-11--9--9--9-|
|--9--9--7--7--9--7--7--7-|
|-------------------------|

Other than that, perfect!

0 reply
man14101 20 May 17, 2009 12:22 PM

The intro is played with an electric guitar, lol it sounds like country music with the acoustic

guest