Oops, an error
Loading. Please wait.

The Speed Of Pain bass

version 2
version 2

Whole song

Interactive

1,039 views 1 this week
no commentswrite comment
1 2 3 4 5
x 3
add to favorites
×
Save as Personal and add changes to this tab that will be seen only by you. Learn more ›
×
You can save this tab as Personal to edit and correct it or add notes. All changes will be seen only by you. Learn more »
launch autoscroll
font size
0
reset
guitar tuner
edit
Autoscroll
slow
fast
+/-
esc
set tempo
stop
Difficulty
			THE SPEED OF PAIN bass tab


artist:marilyn manson
tabber:julien v
album:mechanical animals
mail:jv1_bass@yahoo.fr
4/4

tuning standard

VERSE 1
no bass!


VERSE 2 (=when you want it... until ...heart is me)
G|----------------:----------------:----------------:-----------------|
D|----------------:----------------:----------------:-----------------|
A|----------------:----------------:----------------:-----------------|
E|5---*---*---*---:*---*---*---/-0-:0---0---0---0---:0---0---12---0---| x2
  you want it                  it   goes away

G|----------------:----------------:----------------:----------------|
D|----------------:----------------:----------------:----------------|
A|----------------:----------------:----------------:----------------|
E|5---*---*---*---:*---*---*---\---:8---*---*---*---:*---*---*---/---|
  renember                          free

G|----------------:----------------:----------------:----------------|
D|----------------:----------------:----------------:----------------|
A|----------------:----------------:----------------:----------------|
E|5---*---*---*---:*---*---*---/---:3---*---*---*---:1---*---0---*---| let the E ring
  crack                             fucking heart    is      me


CHORUS x4 (I wanna outrace the speed...)
the first time ,it isn't played
but the second time you play this:
G|----------------:-----------------|
D|----------------:-----------------|
A|----------------:-----------------|
E|0---0---0---0---:0---0---12---0---| 

G|----------------:-----------------|
D|----------------:-----------------|
A|----------------:-----------------|
E|8---*---0---0---:0---0---12---0---|

VERSE 3(lie with me...)
G|----------------:----------------:-----------------:----------------|
D|----------------:----------------:-----------------:----------------|
A|----------------:----------------:-----------------:----------------|
E|3---*---*---*---:*---*---*---\---:11---*---*---*---:*---*---*---/---|

G|----------------:----------------:-----------------:----------------|
D|----------------:----------------:-----------------:----------------|
A|----------------:----------------:-----------------:----------------|
E|8---*---*---*---:*---*---*---\---:10---*---*---*---:*---*---*---/---| 

VERSE 4 (keep all.../hope that...)
G|----------------:----------------:----------------:----------------|
D|----------------:----------------:----------------:----------------|
A|----------------:----------------:----------------:----------------|
E|4---*---*---*---:*---*---*---*---:2---*---*---*---:*---*---*---*---|

G|----------------:----------------:----------------:-----------------|
D|----------------:----------------:----------------:-----------------|
A|----------------:----------------:----------------:-----------------|
E|1---*---*---*---:*---*---*---*---:1---*---*---\---:11---*---*---/---|

            
            
Suggest correction
Creating personal tab
Creating personal tab
You can edit any tab online and save it as your Personal.

You can edit, replace or remove any tab part or add personal notes – all changes will be seen only by you.

Personal tabs can be accessed anytime from any device, even offline.
Learn more »
Give kudos to tab author, rate the tab!
1 2 3 4 5
comments
print report bad tab
guest
Wanna post a correction for this tab? Suggest correction