Oops, an error
Loading. Please wait.
We have an official Tourniquet tab made by UG professional guitarists. Check out the tab »
×
8,300 views 9 this week
2 commentsread comments
1 2 3 4 5
x 5
add to favorites
×
Save as Personal and add changes to this tab that will be seen only by you. Learn more ›
×
You can save this tab as Personal to edit and correct it or add notes. All changes will be seen only by you. Learn more »
launch autoscroll
font size
0
reset
how to read this tab
guitar tuner
backing track
0:00
0:00
edit
Autoscroll
slow
fast
+/-
esc
set tempo
stop
This is my first tab. Let me know if there are problems

Intro:
e----------------3-------1------|
b------------------------2b3r2--|
g----5b6-5--3--0---0------------| x4
d-------------------------------|
a-------------------------------|
d-------------------------------|

Verse 1:

e-------------------------------------|
b-------------------------------------|
g-------------------------------------| x1
d---5---8---5---8---5---11---13---8---|
a-------------------------------------|
d-------------------------------------|

e----------------3-------1------|
b------------------------2b3r2--|
g----5b6-5--3--0---0------------| x4
d-------------------------------|
a-------------------------------|
d-------------------------------|

Chours 1:

e-----------------------|
b-----------------------|
g-----------------------| x2
d---1----5----8----5----|
a---1----5----8----5----|
d---1----5----8----5----|

e----------------3-------1------|
b------------------------2b3r2--|
g----5b6-5--3--0---0------------|
d-------------------------------|
a-------------------------------|
d-------------------------------|

End of Verse 2:

e-------------------|
b-------------------|
g-------------------| x 3
d-------------------|
a-------------------|
d-----5b6r5---------|

Chorus 

e-----------------------|
b-----------------------|
g-----------------------| x2
d---1----5----8----5----|
a---1----5----8----5----|
d---1----5----8----5----|

Bridge:
e----------------|
b----------------|
g----------------| x ? (Listen for time)
d---3-3-3-3-3-3--|
a---3-3-3-3-3-3--|
d---3-3-3-3-3-3--|

e-------------------|
b-------------------|
g-------------------| x8
d-------------------|
a-------------------|
d-----5b6r5---------|

Chorus: 

e-----------------------|
b-----------------------|
g-----------------------| x2
d---1----5----8----5----|
a---1----5----8----5----|
d---1----5----8----5----|

Outro:
e----------------3-------1------|
b------------------------2b3r2--|
g----5b6-5--3--0---0------------| x4
d-------------------------------|
a-------------------------------|
d-------------------------------|

            
            
Suggest correction
Creating personal tab
Creating personal tab
You can edit any tab online and save it as your Personal.

You can edit, replace or remove any tab part or add personal notes – all changes will be seen only by you.

Personal tabs can be accessed anytime from any device, even offline.
Learn more »
comments
print report bad tab
2 comments total.
0 reply
gohmanlespaul89 10 Oct 25, 2007 10:49 PM

yeah sounds good to me, great song

0 reply
Voodevil 31 Feb 09, 2009 02:40 PM

I'm sorry guy, but (in my opinion) this whole tab is one massive mistake:(. The problem is: it's in wrong key, but the notes are ok. As for Your first time You did it well, but try to fit in the original tone.

guest
You may want to rate the tab now too:
select rating
Wanna post a correction for this tab? Suggest correction