Oops, an error
Loading. Please wait.

White Trash tab

version 4
version 4

Whole song

Interactive

652 views 3 this week
no commentswrite comment
1 2 3 4 5
x 5
add to favorites
×
Save as Personal and add changes to this tab that will be seen only by you. Learn more ›
×
You can save this tab as Personal to edit and correct it or add notes. All changes will be seen only by you. Learn more »
launch autoscroll
font size
0
reset
how to read this tab
guitar tuner
edit
Autoscroll
slow
fast
+/-
esc
set tempo
stop
Author
Difficulty
-------------------------------------------------------------------------------
                         White Trash - Marilyn Manson
-------------------------------------------------------------------------------
Tabbed by: Jacque
E-mail: Imbatman1312@gmail.com

Tuning: Standard Tuned up 1/4 step

As performed by Tony Fuckin' Wiggins

e|----------x------x------x-----------x----x-------x--------------|
B|----------1------1------1-----------1----x-------1--------------|
G|----------2------2------2-----------2----2-------2--------------|
D|----------2------2------2-----------2----2-------2--------------|
A|------0---0------0---0--0--------0--0----0---0---0--------------|
E|-0-3~--------0------------0-0-3~-------0-----------0-3--0h3~----|

Virgins sold in quantity, African-American heredity.

e|-0-------------3---------2---------------------------|
B|-1-------------3---------3---------------------------|
G|-2-------------0---------2---------------------------|
D|-2-------------0---------0---------------------------|
A|-0-------------2-------------------------------------|
E|---------------3-------------------------------------|

I'm playin' my guitar and I'm feelin' fine. Why are all the niggers in the unemployment

e|-0--------------------------3-------------2-----------------------------------------|
B|-1--------------------------3-------------3-----------------------------------------|
G|-2--------------------------0-------------2-----------------------------------------|
D|-2--------------------------0-------------0-----------------------------------------|
A|-0--------------------------2-------------------------------------------------------|
E|----------------------------3-------------------------------------------------------|

Line?

e|----------x------x------x-------------x----x-------x--------------|
B|----------1------1------1-------------1----x-------1--------------|
G|----------2------2------2-------------2----2-------2--------------|
D|----------2------2------2-------------2----2-------2--------------|
A|------0---0------0---0--0----------0--0----0---0---0--------------|
E|-0-3~--------0------------0h3-0h3~-------0-----------0-3--0h3~----|

White Trash get down on your knees; Time for cake and sodomy.

e|-0---0--------------3--3-----------2------------------------|
B|-1---1--------------3--3-----------3------------------------|
G|-2---2--------------0--0-----------2------------------------|
D|-2---2--------------0--0-----------0------------------------|
A|-0---0--------------2--2------------------------------------|
E|--------------------3--3------------------------------------|

White Trash get down on your knees; Time for cake and sodomy.

e|-0---0--------------3--3-----------2---------------------------|
B|-1---1--------------3--3-----------3---------------------------|
G|-2---2--------------0--0-----------2---------------------------|
D|-2---2--------------0--0-----------0---------------------------|
A|-0---0--------------2--2---------------------------------------|
E|--------------------3--3-----------------------------0-0-3~-4~-|

e|----------x------x------x-------------x----x-------x--------------|
B|----------1------1------1-------------1----x-------1--------------|
G|----------2------2------2-------------2----2-------2--------------|
D|----------2------2------2-------------2----2-------2--------------|
A|------0---0------0---0--0----------0--0----0---0---0--------------|
E|-0-3~--------0------------0h3-0h3~-------0-----------0-3--0h3~----|

Teenage girl, a teenage queen; 'Til she's on video -- A PORNO queen!

e|-0------------3---------------2---------------------------------------|
B|-1------------3---------------3---------------------------------------|
G|-2------------0---------------2---------------------------------------|
D|-2------------0---------------0---------------------------------------|
A|-0------------2-------------------------------------------------------|
E|--------------3-------------------------------------------------------|

She likes to give head. She likes it mean. That's why she's my little queen.

e|-0--------------------3-------------------2-----------------------------------|
B|-1--------------------3-------------------3-----------------------------------|
G|-2--------------------0-------------------2-----------------------------------|
D|-2--------------------0-------------------0-----------------------------------|
A|-0--------------------2-------------------------------------------------------|
E|----------------------3-------------------------------------------0-3~4~------|

White TRASH get down on your knees; Time for cake and sodomy.

e|-0---0--------------3--3-----------2------------------------|
B|-1---1--------------3--3-----------3------------------------|
G|-2---2--------------0--0-----------2------------------------|
D|-2---2--------------0--0-----------0------------------------|
A|-0---0--------------2--2------------------------------------|
E|--------------------3--3------------------------------------|

White Trash get down on your knees; Time for cake and sodomy.

e|-0---0--------------3--3-----------2-------------------------|
B|-1---1--------------3--3-----------3-------------------------|
G|-2---2--------------0--0-----------2-------------------------|
D|-2---2--------------0--0-----------0-------------------------|
A|-0---0--------------2--2-------------------------------------|
E|--------------------3--3------------------------------0-3-4~-|

e|-----x------x------x-----------x----x-------x--------------|
B|-----1------1------1-----------1----x-------1--------------|
G|-----2------2------2-----------2----2-------2--------------|
D|-----2------2---2--2-----------2----2-------2--------------|
A|-0---0------0------0--------0--0----0---0---0--------------|
E|--------0------------0-0-3b-------0-----------0-3--0h3~----|

e|-----x------x------x-----------x----x-------x--------------|
B|-----1------1------1-----------1----x-------1--------------|
G|-----2------2------2-----------2----2-------2--------------|
D|-----2------2------2-----------2----2-------2--------------|
A|-0---0------0---0--0--------0--0----0---0---0--------------|
E|--------0------------0-0-3~-------0-----------0-3--0h3~----|

White boy tryin' to get some behind:   Who says date rape isn't kind?

e|-0---0-----------------3--3-----------2-------------------------|
B|-1---1-----------------3--3-----------3-------------------------|
G|-2---2-----------------0--0-----------2-------------------------|
D|-2---2-----------------0--0-----------0-------------------------|
A|-0---0-----------------2--2-------------------------------------|
E|-----------------------3--3-------------------------------------|

Who's he gonna go? Who's he gonna please? It don't matter, As long as she's on her knees.

e|-0---0-----------3--3--------------------2-------------------------------------------|
B|-1---1-----------3--3--------------------3-------------------------------------------|
G|-2---2-----------0--0--------------------2-------------------------------------------|
D|-2---2-----------0--0--------------------0-------------------------------------------|
A|-0---0-----------2--2----------------------------------------------------------------|
E|-----------------3--3-------------------------------------------------------0~-3~-4~-|

e|-----x------x------x-------------x----x---------------------|
B|-----1------1------1-------------1----x---------------------|
G|-----2------2------2-------------2----2---------------------|
D|-----2------2------2-----------0h2----2--2--2-2-2-2-2-2-2---|
A|-0---0------0---0--0-------------0----0--2--2-2-2-2-2-2-2---|
E|--------0------------0h3-0h3~-------0----0--0-0-0-0-0-0-0---|

White Trash get down on your knees; Time for cake and sodomy.

e|-0---0--------------3--3-----------2------------------------|
B|-1---1--------------3--3-----------3------------------------|
G|-2---2--------------0--0-----------2------------------------|
D|-2---2--------------0--0-----------0------------------------|
A|-0---0--------------2--2------------------------------------|
E|--------------------3--3------------------------------------|

WHITE TRASH GET DOWN ON YOUR KNEES; Time for cake and sodomy.

e|-0---0--------------3--3-----------2------------------------|
B|-1---1--------------3--3-----------3------------------------|
G|-2---2--------------0--0-----------2------------------------|
D|-2---2--------------0--0-----------0------------------------|
A|-0---0--------------2--2------------------------------------|
E|--------------------3--3------------------------------------|

e|----------x------x------x-----------x----x-------x--------------|
B|----------1------1------1-----------1----x-------1--------------|
G|----------2------2------2-----------2----2-------2--------------|
D|----------2------2------2-----------2----2-------2--------------|
A|------0---0------0---0--0--------0--0----0---0---0--------------|
E|-0-3~--------0------------0-0-3~-------0-----------0-3--0h3~----|

e|----------x------x------x-----------x----x------|
B|----------1------1------1-----------1----x------|
G|----------2------2------2-----------2----2------|
D|----------2------2------2-----------2----2------|
A|------0---0------0---0--0--------0--0----0---0--|
E|-0-3~--------0------------0-0-3~-------0--------|


************************************

| /   slide up
| \   slide down
| h   hammer-on
| p   pull-off
| ~   vibrato
| +   harmonic
| x   Mute note
| b   Bend
| pb  Pre-bend
| br  Bend release
| pbr Pre-bend release
| brb Bend release bend

************************************

            
            
Suggest correction
Creating personal tab
Creating personal tab
You can edit any tab online and save it as your Personal.

You can edit, replace or remove any tab part or add personal notes – all changes will be seen only by you.

Personal tabs can be accessed anytime from any device, even offline.
Learn more »
comments
print report bad tab
guest
You may want to rate the tab now too:
select rating
Wanna post a correction for this tab? Suggest correction