Oops, an error
Loading. Please wait.

Wow bass

version 1
version 1

Whole song

Interactive

2,728 views 1 this week
no commentswrite comment
1 2 3 4 5
1 last vote to show rating
add to favorites
×
Save as Personal and add changes to this tab that will be seen only by you. Learn more ›
×
You can save this tab as Personal to edit and correct it or add notes. All changes will be seen only by you. Learn more »
launch autoscroll
font size
0
reset
guitar tuner
edit
Autoscroll
slow
fast
+/-
esc
set tempo
stop
----------------------------------------------------------------------------
			     WOW - Marilyn Manson
----------------------------------------------------------------------------

Tabbed By : ironmanben
e-mail: bentrooper@gmail.com

Tuning: Drop C (G D A C)

intro (fade in and out)
G|----|
D|----|
A|----|
E|-2~-|

riff 1 x4
G|-------------------|
D|-------------------|
A|---------5----3--6-|
C|-2-2-2-2---8-------|

riff 2 x4
G|-------------------|
D|-------------------|
A|---------3----1--4-|
E|-0-0-0-0---6-------|

riff 1 x4
riff 2 x4
riff 1 x4
riff 2 x3
(bass silent for the duration of riff 1 x1)-"wow wow wow wow wow wow wow"

chorus x2
G|-----------------------------------------------------------------|
D|-----------------------------------------------------------------|
A|-----------------------------------------------------------------|
E|-9-9-9-9-9-9-9-9-4-4-4-4-4-4-4-4-5-5-5-5-5-5-5-5-5-5-5-5-5-5-5-5-|

riff 1 x8
riff 2 x4
riff 1 x4
riff 2 x3
(bass silent for the duration of riff 1 x1)-"wow wow wow wow wow wow wow"
chorus x2
(silent for the keyboard solo)

Hold this out for the same amount of time as you would play riff 1 x4
G|---|
D|---|
A|---|
E|-2-|

Hold this out for the same amount of time as you would play riff 2 x4
G|---|
D|---|
A|---|
E|-0-|

riff 1 x4
riff 2 x4
riff 1 x3
(bass silent for the duration of riff 1 x1)-"wow wow wow wow wow wow wow"
chorus x2
riff 1 x4

that's it

| /  slide up
| \  slide down
| h  hammer-on
| p  pull-off
| ~  vibrato
| +  harmonic
| x  Mute note
===============================================================================

            
            
Suggest correction
Creating personal tab
Creating personal tab
You can edit any tab online and save it as your Personal.

You can edit, replace or remove any tab part or add personal notes – all changes will be seen only by you.

Personal tabs can be accessed anytime from any device, even offline.
Learn more »
Give kudos to tab author, rate the tab!
1 2 3 4 5
comments
print report bad tab
guest
You may want to rate the tab now too:
select rating
Wanna post a correction for this tab? Suggest correction