Oops, an error
Loading. Please wait.

Ragpickers Dream tab

4,031 views 1 this week
1 commentread comment
1 2 3 4 5
1 last vote to show rating
add to favorites
×
Save as Personal and add changes to this tab that will be seen only by you. Learn more ›
×
You can save this tab as Personal to edit and correct it or add notes. All changes will be seen only by you. Learn more »
launch autoscroll
font size
0
reset
how to read this tab
guitar tuner
edit
Autoscroll
slow
fast
+/-
esc
set tempo
stop
Mark Knopfler
The Ragpicker's Dream
" "

Standard Tuning


E--------------------------------|
B---------h5-4p2(v)--------------|
G--------------------4s3s4-4-----|
D--2p4s6---------------------2---|
A--------------------------------|
E--------------------------------|

From the 6, snap quickly to the 5 on the B string,
then lull briefly before you drop to the 4.

E--------------------------------|
B---------h5s7-7p5p4p2-----------|
G----------------------4p3h4-----|
D--2p4s6-------------------------|
A--------------------------------|
E--------------------------------|

I've been listening to the song and keep hearing
this strange slide thing going, which sounds kind
of like this:

B--5s4s5-------------------

If you hit the 5 a little hard, then drag your finger
to the four and back to the five without striking the
string again with your strumming hand, it should produce
that sound.

p == pull
s == slide
h == hammer-on
v == vibrato

            
            
Suggest correction
Creating personal tab
Creating personal tab
You can edit any tab online and save it as your Personal.

You can edit, replace or remove any tab part or add personal notes – all changes will be seen only by you.

Personal tabs can be accessed anytime from any device, even offline.
Learn more »
Give kudos to tab author, rate the tab!
1 2 3 4 5
comments
print report bad tab
1 comment total.
0 reply
sashki 2,947 Mar 26, 2008 03:32 AM

I play it like this

E--------------------------------|
B---------h5-4p2(v)--------------|
G------1-------------4p2h4-4-----|
D--2p4-----------------------2---|
A--------------------------------|
E--------------------------------|

E-----------0----------------------|
B---------0---s7-7p5p4p2-----------|
G------1-----------------4s6s4-----|
D--2p4-----------------------------|
A----------------------------------|
E----------------------------------|

guest
Wanna post a correction for this tab? Suggest correction