Oops, an error
Loading. Please wait.

Redbud Tree solo tab

version 1
version 1

Solo

Interactive

7,840 views 9 this week
3 commentsread comments
1 2 3 4 5
x 9
add to favorites
×
Save as Personal and add changes to this tab that will be seen only by you. Learn more ›
×
You can save this tab as Personal to edit and correct it or add notes. All changes will be seen only by you. Learn more »
launch autoscroll
font size
0
reset
how to read this tab
guitar tuner
edit
Autoscroll
slow
fast
+/-
esc
set tempo
stop
Redbud Tree
Mark Knopfler - Privateering(2012)


I tabbed this from a youtube tut vid, thanks to 12988Jake for that
http://www.youtube.com/watch?v=ikQtKLB_JbQ
I don't believe there are any mistakes, I am working on the timing now for some proper 
staff notation

E-----------------------------------------|
B-----------------------------------------|
G-7h9/10---9-10-9-7---12b-12-10-12b-12-10-|
D-----------------------------------------|
A-----------------------------------------|
E-----------------------------------------|

E------------------------------------------------------|
B------------------------------10-11p10----------------|
G-9-10p9-12-9h10p9-10p9-7--12b---------12-10-12b-12-10-|
D------------------------------------------------------|
A------------------------------------------------------|
E------------------------------------------------------|

E----------------------------------------------------|
B--------10----------10---------10-11/13-11h13p11-10-|
G--10h12----12p10h12------10h12----------------------|
D----------------------------------------------------|
A----------------------------------------------------|
E----------------------------------------------------|

E-------------------------------------------|
B------10h11-10----11-10-------10--------10-|
G---12----------12---------------12p10h12---|
D-12--------------------12---12-------------|
A-------------------------------------------|
E-------------------------------------------|

E---------------------------------------------------------------|
B-------10-11/13-11h13p11-10-----------10/11~/13----10h11p10----|
G-10h12-----------------------------12-----------12-------------|
D-----------------------------11/12--------------------------12-|
A---------------------------------------------------------------|
E---------------------------------------------------------------|

            
            
Suggest correction
Creating personal tab
Creating personal tab
You can edit any tab online and save it as your Personal.

You can edit, replace or remove any tab part or add personal notes – all changes will be seen only by you.

Personal tabs can be accessed anytime from any device, even offline.
Learn more »
comments
print report bad tab
3 comments total.
0 reply
zehniakdere 35 Sep 17, 2014 10:16 AM

Hey mate ? watched 12988Jake's video too And i Tabbed it like this
? Thinks ?t's a little bit more accurate


E------------------------------------------------------------------------------------------------------------------------------|
B---------------------------------------------------------------------------9h10p9----------------------------10----------10---|
G-7h9/10---9h10p9/7---12B-12-10-12b-12-10---9--10p9--12~--10p9h10p9/7--12b----------12-10-12b-12-10-----10h12-----12p10h12-----|
D------------------------------------------------------------------------------------------------------------------------------|
A------------------------------------------------------------------------------------------------------------------------------|
E------------------------------------------------------------------------------------------------------------------------------|

E---------------------------------------------------------------------------------------------------------------------------------------|
B------10-11/13--11h13p11/10------------10h11~-10-------11-10----------10-----------10----10----------10---------10h11/13--11h13p11/10--|
G-10h12-----------------------------12------------12-----------------------12p10h12---------12p10h12------10h12-------------------------|
D--------------------------------12----------------------------12--12-------------------12----------------------------------------------|
A---------------------------------------------------------------------------------------------------------------------------------------|
E---------------------------------------------------------------------------------------------------------------------------------------|

E--------------------------------------|
B----------10/11/12--------------------|
G-------12----------12-----------------|
D-11/12-------------------------12-----|
A--------------------------------------|
E--------------------------------------|

0 reply
zehniakdere 35 Sep 17, 2014 10:23 AM

12325623611234

0 reply
UG Support [ug] 79 Sep 17, 2014 11:23 PM

Test Test Test Test Test

guest
Wanna post a correction for this tab? Suggest correction