Oops, an error
Loading. Please wait.

Southbound Again bass

878 views 3 this week
no commentswrite comment
1 2 3 4 5
1 last vote to show rating
add to favorites
×
Save as Personal and add changes to this tab that will be seen only by you. Learn more ›
×
You can save this tab as Personal to edit and correct it or add notes. All changes will be seen only by you. Learn more »
launch autoscroll
font size
0
reset
guitar tuner
edit
Autoscroll
slow
fast
+/-
esc
set tempo
stop
Author
Difficulty
Artist/Band:  Mark Knopfler/Dire Straits
Song title: Southboung again
Tabbed by: Bruno Frenchy
Notes:  Play it funky !! Great Jordy song from Newcastle(UK)...

Start after guitar & drums intro

Verse 1
G--------|------------|
D--------|------------|
A--------|-----3-2-0--| x1
E--3--5--|--5---------|
            Southbound again

G--------|-----------|---------|---------|
D--------|-----------|---------|---------|
A--------|-----3-2-0-|---------|---5-----|
E--3--5--|--5--------|--3--5---|-5---5---|
                       Don't know if I'm going or leaving home

G--------|------------|
D--------|------------|
A--------|-----3-2-0--|  x3
E--3--5--|--5---------|

G--------|------------|
D--------|------------|
A--------|-----3-2-0--|  x1
E--3--5--|--5---------|
            Southbound again

G--------|------------|
D--------|------------|
A--------|-----3-2-0--| x1
E--3--5--|--5---------|

G--------|-----------|--------|-------|--------|
D--------|-----------|--------|-------|--------|
A--------|-----3-2-0-|--3--5--|--3--5-|--------|
E--3--5--|--5--------|--------|-------|--3--5--|
                                 Don't know if I'm going or leaving home

G--------|------------|
D--------|------------|
A--------|-----3-2-0--|  x3
E--3--5--|--5---------|

G--------|------------|
D--------|------------|
A--------|-----3-2-0--| x1
E--3--5--|--5---------|
            Boy got to be moving

G--------|------------|
D--------|------------|
A--------|-----3-2-0--| x1
E--3--5--|--5---------|

G--------|-----------|--------|-------|--------|
D--------|-----------|--------|-------|--------|
A--------|-----3-2-0-|--3--5--|--3--5-|--------|
E--3--5--|--5--------|--------|-------|--3--5--|
                                Seems like the boy is bound to roam


Verse 2
G--------|------------|
D--------|------------|
A--------|-----3-2-0--|  x1
E--3--5--|--5---------|
            Every single time
G--------|-----------|---------|---------|
D--------|-----------|---------|---------|
A--------|-----3-2-0-|---------|---5-----|
E--3--5--|--5--------|--3--5---|-5---5---|
                        roll across the rolling River Tyne

G--------|------------|
D--------|------------|
A--------|-----3-2-0--|  x3
E--3--5--|--5---------|

G--------|------------|
D--------|------------|
A--------|-----3-2-0--|  x1
E--3--5--|--5---------|
            Every single time

G--------|------------|
D--------|------------|
A--------|-----3-2-0--| x1
E--3--5--|--5---------|

G--------|-----------|--------|-------|--------|
D--------|-----------|--------|-------|--------|
A--------|-----3-2-0-|--3--5--|--3--5-|--------|
E--3--5--|--5--------|--------|-------|--3--5--|
                                roll across the rolling River Tyne

G--------|------------|
D--------|------------|
A--------|-----3-2-0--|  x3
E--3--5--|--5---------|

G--------|------------|
D--------|------------|
A--------|-----3-2-0--|  x1
E--3--5--|--5---------|
            I get the same old feeling

G--------|------------|
D--------|------------|
A--------|-----3-2-0--| x1
E--3--5--|--5---------|

G--------|-----------|--------|-------|--------|
D--------|-----------|--------|-------|--------|
A--------|-----3-2-0-|--3--5--|--3--5-|--------|
E--3--5--|--5--------|--------|-------|--3--5--|
                                Every time I'm moving down the line

G--------|------------|
D--------|------------|
A--------|-----3-2-0--| x5
E--3--5--|--5---------|


« Here we go »
G--------|-----------|---------|---------|
D--------|-----------|---------|---------|
A--------|-----3-2-0-|---------|---5-----|
E--3--5--|--5--------|--3--5---|-5---5---|



G--------|------------|
D--------|------------|
A--------|-----3-2-0--| x4
E--3--5--|--5---------|

G--------|-----------|--------|-------|--------|
D--------|-----------|--------|-------|--------|
A--------|-----3-2-0-|--3--5--|--3--5-|--------|
E--3--5--|--5--------|--------|-------|--3--5--|

Guitar solo

G--------|------------|
D--------|------------|
A--------|-----3-2-0--| x4
E--3--5--|--5---------|

G--------|-----------|--------|-------|--------|
D--------|-----------|--------|-------|--------|
A--------|-----3-2-0-|--3--5--|--3--5-|--------|
E--3--5--|--5--------|--------|-------|--3--5--|

G--------|-----------|-----------|
D--------|-----------|-----------|
A--------|-----3-2-0-------------|- x3
E--3--5--|--5--------------------|

G--------|-----------|---------|---------|------------|
D--------|-----------|---------|---------|------------|
A--------|-----3-2-0-|---------|---------|------------|
E--3--5--|--5--------|--3--5---|---3--5--|------------|


Guitar & drums


Verse 3
G--------|------------|
D--------|------------|
A--------|-----3-2-0--| x1
E--3--5--|--5---------|
            Southbound again

G--------|-----------|---------|---------|
D--------|-----------|---------|---------|
A--------|-----3-2-0-|---------|---5-----|
E--3--5--|--5--------|--3--5---|-5---5---|
                       last night I felt like crying

G--------|------------|
D--------|------------|
A--------|-----3-2-0--|  x3
E--3--5--|--5---------|



G--------|------------|
D--------|------------|
A--------|-----3-2-0--|  x1
E--3--5--|--5---------|
            Southbound again

G--------|------------|
D--------|------------|
A--------|-----3-2-0--| x1
E--3--5--|--5---------|

G--------|-----------|--------|-------|--------|
D--------|-----------|--------|-------|--------|
A--------|-----3-2-0-|--3--5--|--3--5-|--------|
E--3--5--|--5--------|--------|-------|--3--5--|
                                 last night I felt like dying


G--------|------------|
D--------|------------|
A--------|-----3-2-0--|  x3
E--3--5--|--5---------|

G--------|------------|
D--------|------------|
A--------|-----3-2-0--| x1
E--3--5--|--5---------|
            Right now I'm sick of living

G--------|------------|
D--------|------------|
A--------|-----3-2-0--| x1
E--3--5--|--5---------|

G--------|-----------|--------|-------|--------|
D--------|-----------|--------|-------|--------|
A--------|-----3-2-0-|--3--5--|--3--5-|--------|
E--3--5--|--5--------|--------|-------|--3--5--|
                                 But I'm going to keep on trying

   « ….Keep on trying… »

G--------|------------|
D--------|------------|
A--------|-----3-2-0--| XX till Fade out
E--3--5--|--5---------|

            
            
Suggest correction
Creating personal tab
Creating personal tab
You can edit any tab online and save it as your Personal.

You can edit, replace or remove any tab part or add personal notes – all changes will be seen only by you.

Personal tabs can be accessed anytime from any device, even offline.
Learn more »
Give kudos to tab author, rate the tab!
1 2 3 4 5
comments
print report bad tab
guest
You may want to rate the tab now too:
select rating
Wanna post a correction for this tab? Suggest correction