Oops, an error
Loading. Please wait.

Doin Dirt chords

version 2
version 2

Whole song

  • Have a TAB to make it more Fun to play.
82 views 1 this week
no commentswrite comment
1 2 3 4 5
3 more votes to show rating
add to favorites
×
Save as Personal and add changes to this tab that will be seen only by you. Learn more ›
×
You can save this tab as Personal to edit and correct it or add notes. All changes will be seen only by you. Learn more »
launch autoscroll
font size
0
reset
transpose
0
reset
display chords
guitar tuner
edit
Autoscroll
slow
fast
+/-
esc
set tempo
stop
About this tab version
Have a TAB to make it more Fun to play. Was this info helpful? Yes No
Strumming Is this strumming pattern correct? Yes No
125 bpm
1
&
2
&
3
&
4
&
Listen
Song: Doin' Dirt
Artist: Maroon 5
Album: Overexposed - Track N.11
Tuning: Standard
Tabbed by: Javier Ballesteros

The other contribution about this song is correctly, but I've found some modifications that it can make
this song more happier to play.

Basic Chord progression:
G#m
B
D#m
C#

Chorus is rhythm, and Verse you can strumming like the Chorus, one strum or do nothing.
------

This tab's are for the Chorus section, Have fun. You can use or not, this is just to make it
more Fun to play, because I like Funky rhythm Guitar sound :).

            G#m* G#m      B  B    D#m*  D#m     C#
e|------------7--4--------11-7-----9----6-------9---------------------------------------|
B|------------4--4--------7--7-----7----7-------9---------------------------------------|
G|------------4--4--------8--8-----8----8-------10--------------------------------------|
D|------------6--6--------9--9-----8----8-------11--------------------------------------|
A|------------6--6--------9--9-----6----6-------11--------------------------------------|
E|------------4--4--------7--7------------------9---------------------------------------|


--------------------------------------------------------
[Intro]
            G#m* G#m      B  B    D#m*  D#m     C#
e|------------7--4--------11-7-----9----6-------9---------------------------------------|
B|------------4--4--------7--7-----7----7-------9---------------------------------------|
G|------------4--4--------8--8-----8----8-------10--------------------------------------|
D|------------6--6--------9--9-----8----8-------11--------------------------------------|
A|------------6--6--------9--9-----6----6-------11--------------------------------------|
E|------------4--4--------7--7------------------9---------------------------------------|
Oh, yeah, oh yeah

[Verse]

G#                                   B
Hey you, don't wanna love you on the telephone
            D#m               
You're hanging up and now I'm all alone
         C#
Baby you got me doing dirt, doing dirt, doing dirt
G#m                                  B
And now I wanna find you but you're off the run
                        D#m
My heart's exploding like a burning sun
                        C#
I know you like it when it hurts, when it hurts, when it hurts

[Chorus]

G#m                                      B
Hold me we're dancing in the dark of the night
                           D#m
You're shining like a neon light
                       C#
I light you up, when I get inside
                   G#m                               B
So won't you touch me? cause everybody's watching us now
                                D#m
We're putting on a show for the crowd
                           C#
So turn it up baby make it loud

            G#m* G#m      B  B    D#m*  D#m     C#
e|------------7--4--------11-7-----9----6-------9---------------------------------------|
B|------------4--4--------7--7-----7----7-------9---------------------------------------|
G|------------4--4--------8--8-----8----8-------10--------------------------------------|
D|------------6--6--------9--9-----8----8-------11--------------------------------------|
A|------------6--6--------9--9-----6----6-------11--------------------------------------|
E|------------4--4--------7--7------------------9---------------------------------------|

[Verse]
G#m                                  B
Hey you, say that you're only having fun and then
                      D#m
You call me up at 3am again
                C#
Baby you got me doing dirt, doing dirt, doing dirt
G#m                               B
And now all that I got is just a microphone
                         D#m
To let you know that I'm all alone
                           C#
I know you like it when it hurts, when it hurts

[Chorus]

G#m                                      B
Hold me we're dancing in the dark of the night
                           D#m
You're shining like a neon light
                           C#
I light you up, when I get inside
                   G#m                                B
So won't you touch me? cause everybody's watching us now
                               D#m
We're putting on a show for the crowd
                           C#
So turn it up baby make it loud
            G#m* G#m      B  B    D#m*  D#m     C#
e|------------7--4--------11-7-----9----6-------9---------------------------------------|
B|------------4--4--------7--7-----7----7-------9---------------------------------------|
G|------------4--4--------8--8-----8----8-------10--------------------------------------|
D|------------6--6--------9--9-----8----8-------11--------------------------------------|
A|------------6--6--------9--9-----6----6-------11--------------------------------------|
E|------------4--4--------7--7------------------9---------------------------------------|

Yeah, come on

[Interlude]
G#m                                  B
So right now, I wanna leave with you right now
                                          D#m
I wanna be with you all night, in the car let's go
                                                   C#
Yeah let's take it home, let's take it home, let's take it home

G#m                                  B
So right now, I wanna leave with you right now
                                          D#m
I wanna be with you all night, in the car let's go
                                                   C#
Yeah let's take it home, let's take it home, let's take it home


Hold me we're dancing in the dark of the night
            G#m* G#m      B  B    D#m*  D#m     C#
e|------------7--4--------11-7-----9----6-------9---------------------------------------|
B|------------4--4--------7--7-----7----7-------9---------------------------------------|
G|------------4--4--------8--8-----8----8-------10--------------------------------------|
D|------------6--6--------9--9-----8----8-------11--------------------------------------|
A|------------6--6--------9--9-----6----6-------11--------------------------------------|
E|------------4--4--------7--7------------------9---------------------------------------|

[Chorus]

G#m                                      B
Hold me we're dancing in the dark of the night
                           D#m
You're shining like a neon light
                           C#
I light you up, when I get inside
                   G#m                                B
So won't you touch me? cause everybody's watching us now
                               D#m
We're putting on a show for the crowd
                           C#
So turn it up baby make it loud

            G#m* G#m      B  B    D#m*  D#m     C#
e|------------7--4--------11-7-----9----6-------9---------------------------------------|
B|------------4--4--------7--7-----7----7-------9---------------------------------------|
G|------------4--4--------8--8-----8----8-------10--------------------------------------|
D|------------6--6--------9--9-----8----8-------11--------------------------------------|
A|------------6--6--------9--9-----6----6-------11--------------------------------------|
E|------------4--4--------7--7------------------9---------------------------------------|

            
            
Suggest correction
Creating personal tab
Creating personal tab
You can edit any tab online and save it as your Personal.

You can edit, replace or remove any tab part or add personal notes – all changes will be seen only by you.

Personal tabs can be accessed anytime from any device, even offline.
Learn more »
Give kudos to tab author, rate the tab!
1 2 3 4 5
comments
print report bad tab
guest
You may want to rate the tab now too:
select rating
Wanna post a correction for this tab? Suggest correction