Oops, an error
Loading. Please wait.

The Sun solo tab

version 1
version 1

Solo

Whole song

Interactive

572 views 1 this week
2 commentsread comments
1 2 3 4 5
x 7
add to favorites
×
Save as Personal and add changes to this tab that will be seen only by you. Learn more ›
×
You can save this tab as Personal to edit and correct it or add notes. All changes will be seen only by you. Learn more »
launch autoscroll
font size
0
reset
how to read this tab
guitar tuner
edit
Autoscroll
slow
fast
+/-
esc
set tempo
stop
---------------------------------------------------------------------------------------------------------------
                                          Artist - Maroon 5
                                         *******************
                                           Song - The Sun
                                          ****************
                                         Album - About Jane    
                                        ********************
                                        Tabbed By - Ayreon77
                                       **********************
---------------------------------------------------------------------------------------------------------------
Tuning = Standard

                            This Is a Request For the solo For This Song.


UB = Union Bend


Wha Wha And Played Funkyyyyyyy
03:12
   UB s             s            UB s             UB
e|-12-\-----------12\-|----------12-\-|------------8-|----------------------------|
B|-15-\-----------13\-|------10--15-\-|-s-----10--11-|---p--10--------------------|
G|-------------12-----|-9-11----------|-\9-11--------|-12-9----12-----------------|
D|-------12-14--------|---------------|--------------|------------12-10--12-10----|
A|--------------------|---------------|--------------|-------------------------12-|
E|--------------------|---------------|--------------|----------------------------|


e|---p--p-------------------------------------------|---p--p------------------|-------------------|
B|-13-12-10---p--p-------------------------------10-|-13-12-10---p--p---------|--b----------------|
G|----------12-11-9---h--p-------9-12-12--9-12------|----------12-11-9--------|-14-14-12----12-14-|
D|------------------10-12-10-12---------------------|------------------10--12-|----------14-------|
A|--------------------------------------------------|-------------------------|-------------------|
E|--------------------------------------------------|-------------------------|-------------------|


e|---p--p------------------|-------------------|-------------------------|-------------------------------|
B|-13-12-10---p--p---------|--b----------------|-------------------------|-------------------------------|
G|----------12-11-9--------|-14-14-12----14-12-|---p---------------------|---h--p------------------------|
D|------------------10--12-|----------14-------|-14-13----------12-13-14-|-10-12-10----9----------s------|
A|-------------------------|-------------------|-------15-12-15----------|----------12---10-12--10\12-12-|
E|-------------------------|-------------------|-------------------------|-------------------------------|

03:38              UB                      UB 
e|-----------------12-|------------------|-12~~~-----p--p------------------------------|------------------|
B|-----------------15-|------10--10~~----|-15~~~---13-12-11----------------------------|------------------|
G|--------------------|-9-11----------11-|------------------12----12----12-11----------|------------------|
D|-------------s------|------------------|---------------------14----14-------12-10----|---h--10--10-9----|
A|-5-3-------19\------|------------------|------------------------------------------12-|-10-12---------12-|
E|-----5--------------|------------------|---------------------------------------------|------------------|

                        FADE OUT.............................................................................   
e|------------------------------------------|------------------------------------------b-5-b-------b-7--br----|
B|------------------------------------------|--------------------------------------8---7---7-7-5--10---10-8---|
G|------------------------------------------|---h--p---------------------------9-8---8----------------------9-|
D|-10-9-12-----12----12----12-12-----9-10-9-|-13-14-13-12--------9---s---10-12--------------------------------|
A|----------12----12----12--------12--------|-------------15-12----10\12--------------------------------------|
E|------------------------------------------|-----------------------------------------------------------------|



ENJOY..........

            
            
Suggest correction
Creating personal tab
Creating personal tab
You can edit any tab online and save it as your Personal.

You can edit, replace or remove any tab part or add personal notes – all changes will be seen only by you.

Personal tabs can be accessed anytime from any device, even offline.
Learn more »
comments
print report bad tab
2 comments total.
+1 reply
vimska 30 Aug 28, 2015 07:39 AM

Thanks a lot man!

+1 reply
ayreon77 21,833 Aug 28, 2015 08:38 AM

no prob your welcome. good luck with it.

guest
You may want to rate the tab now too:
select rating
Wanna post a correction for this tab? Suggest correction