Oops, an error
Loading. Please wait.

Beauty Is Empty bass

2,129 views 42 this week
2 commentsread comments
1 2 3 4 5
x 3
add to favorites
×
Save as Personal and add changes to this tab that will be seen only by you. Learn more ›
×
You can save this tab as Personal to edit and correct it or add notes. All changes will be seen only by you. Learn more »
launch autoscroll
font size
0
reset
guitar tuner
edit
Autoscroll
slow
fast
+/-
esc
set tempo
stop
Author
 After looking all over the internet for this bass tab and not finding any
 good results, I decided to do something I thought I would never have to do:
 Learn a bass line by ear.

And it's an easy one too. This would take you about an hour to learn and play along with the song.
Use this video for reference: http://www.youtube.com/watch?v=tEIRAEM7SNE


     0:12-0:18
G|--------------------------------------------------------------------------|
D|--------------------------------------------------------------------------|
A|--------------------------------------------------------------------------|
E|----2--2---0--2--2---0--2--2---0--2--2---0--2--2---0--2--2----------------|

     0:18-1:15 (hammer ons are optional)
G|--------------------------------------------------------------------------|
D|--------------------------------------------------------------------------|
A|--------------0h1/2-2-0h2-2-0-2-2-0-4-2-0---------------------------------|
E|-0-2-2--0-2h4-----------------------------4-[2-2-0]REPEAT-2-TIMES---------|
Repeat that whole line until you get to the 1:15 mark.

     1:16-1:35 #Play these notes fast#
G|--------------------------------------------------------------------------|
D|--2-2-0-2-2-0-2-2-0-#4-2-0------------------------------------------------|
A|---------------------------4#----------------------1----------------------|
E|-----------------------------2-2-0-2-2-0-2-2-0h2h4------------------------|
Repeat  until the 1:35 mark.

     1:36-2:21
G|--------------------------------------------------------------------------|
D|--------------------------------------------------------------------------|
A|--------------------------------------------------------------------------|
E|----2--2---0--2--2---0--2--2---0--2--2---0--2--2---0--2--2----------------|

G|--------------------------------------------------------------------------|
D|--------------------------------------------------------------------------|
A|--------------0h1/2-2-0h2-2-0-2-2-0-4-2-0---------------------------------|
E|-0-2-2--0-2h4-----------------------------4-[2-2-0]REPEAT-2-TIMES---------|
Repeat this whole line (not the one on top of this one) 
until you get to the 2:21 mark.

To be fair, I'm not sure of what to do next. It follows a base line similar to the chorus one 
(1:16-1:35)But I believe that it's mostly improvisation although I could be wrong.
     2:21-3:07
G|-------------------------------------------------------------------------|
D|--2-2-2-2-2-2-0-2-4-2-2-0------------------------------------------------|
A|---------------------------4----------------------1----------------------|
E|-----------------------------2-2-0-2-2-0-2-2-0h2h4-----------------------|

    3:08-3:15
G|--------------------------------------------------------------------------|
D|--------------------------------------------------------------------------|
A|--------------------------------------------------------------------------|
E|----2-2-2b----2-2-2b-----2-2-2b----2-2-2b---------------------------------|

And That's it. I may have made a few mistakes so please comment if I did something wrong.

            
            
Suggest correction
Creating personal tab
Creating personal tab
You can edit any tab online and save it as your Personal.

You can edit, replace or remove any tab part or add personal notes – all changes will be seen only by you.

Personal tabs can be accessed anytime from any device, even offline.
Learn more »
Give kudos to tab author, rate the tab!
1 2 3 4 5
comments
print report bad tab
2 comments total.
0 reply
CumDragon69 82 Jun 28, 2013 12:06 PM

Instead of "REPEAT 2 TIMES" I meant to put "PLAY 2 TIMES"

+4 reply
fozioboy 12 Oct 05, 2016 02:35 PM

Hi there great tab. Just wondering if u might attempt the guitar tab aswell?

guest
You may want to rate the tab now too:
select rating
Wanna post a correction for this tab? Suggest correction