Oops, an error
Loading. Please wait.

Jimmy Mack bass

229 views 1 this week
no commentswrite comment
1 2 3 4 5
3 more votes to show rating
add to favorites
×
Save as Personal and add changes to this tab that will be seen only by you. Learn more ›
×
You can save this tab as Personal to edit and correct it or add notes. All changes will be seen only by you. Learn more »
launch autoscroll
font size
0
reset
guitar tuner
edit
Autoscroll
slow
fast
+/-
esc
set tempo
stop
Author
Difficulty
Jimmy Mack
1967 release for Martha Reeves and The Vandellas reached number 21 in UK
Bass Performance James Jamerson. Tab by bass50611. Welcome to my tab that 
I think is very close as one can get to a Jamerson original.
Why this only charted at Number 21 I will never know. Great dance track
Comment at bass254@btinternet.com

Intro:
               ‘Jimmy Mack...Jimmy...Oh Jimmy Mack when are you coming back
G|------------|------------------------------------------------------------
D|-SNARE DRUM-|-----------------------NO BASS------------------------------
A|----START---|------------------------------------------------------------
E|------------|------------------------------------------------------------

   Jimmy Mack...Jimmy...Oh Jimmy Mack when are you coming back
G|-------------------------------------------------------------
D|-------------------------------------------------------------
A|-------------------------------------------------------------
E|-------------------------------------------------2--2---4--4-

Verse 1:
G|----------------------------------------------------------------------
D|----x-4----x-4----x-4---4-4---6-6-----x-4----x-4----x-4----x-4----x-4-
A|-4-4----4-4----4-4-----------------4-4----4-4----4-4----4-4----4-4----
E|----------------------------------------------------------------------

G|----------------------
D|----x-4----x-4----x-4-
A|-4-4----4-4----4-4----
E|----------------------

Chorus:
G|----------------------------------------------------------------------
D|------------------------------------4--4--4--4------------------------
A|-6--6--6--6--6--6--6--5--4--4--4--4------------6--6--6--6--6--6--6--5-
E|----------------------------------------------------------------------

G|-------------------------
D|------------4---4---6--6-
A|-4--4--4--4--------------
E|-------------------------

Repeat Verse:

Repeat Chorus:

Bridge 1:
G|-------------------------------
D|----x-4----x-4----x-4--4-4-4-4-
A|-4-4----4-4----4-4-------------
E|-------------------------------

Solo:
G|------------------------------------------------------------------
D|----x-4----x-4----x-4----x-4------------------------------4-4-4-4-
A|-4-4----4-4----4-4----4-4-----6-6-x-6---6-6-x-6---4-4-x-4---------
E|------------------------------------------------------------------

Verse 3:
G|---------------------------------------------------------
D|----x-4----x-4----x-4----x-4----x-4----x-4----x-4----x-4-
A|-4-4----4-4----4-4----4-4----4-4----4-4----4-4----4-4----
E|---------------------------------------------------------

Repeat Chorus:

Bridge 2:
G|------------------------------------
D|----x-4----x-4----4-4-x-4---4-4-x-4-
A|-4-4----4-4-------------------------
E|------------------------------------

Outro:                          (Repeat To Fade/End)
G|-------------------------------------------
D|----x-4----x-4----x-4----x-4----x-4----x-4-
A|-4-4----4-4----4-4----4-4----4-4----4-4----
E|-------------------------------------------


            
            
Suggest correction
Creating personal tab
Creating personal tab
You can edit any tab online and save it as your Personal.

You can edit, replace or remove any tab part or add personal notes – all changes will be seen only by you.

Personal tabs can be accessed anytime from any device, even offline.
Learn more »
Give kudos to tab author, rate the tab!
1 2 3 4 5
comments
print report bad tab
guest
You may want to rate the tab now too:
select rating
Wanna post a correction for this tab? Suggest correction