Oops, an error
Loading. Please wait.

High Germany tab

589 views 6 this week
no commentswrite comment
1 2 3 4 5
3 more votes to show rating
add to favorites
×
Save as Personal and add changes to this tab that will be seen only by you. Learn more ›
×
You can save this tab as Personal to edit and correct it or add notes. All changes will be seen only by you. Learn more »
launch autoscroll
font size
0
reset
how to read this tab
guitar tuner
edit
Autoscroll
slow
fast
+/-
esc
set tempo
stop
Author
Difficulty
About this tab version
Tab of High Germany by Martin Carthy, based mainly on the version on the Sound Techniques DVD, Guitar Maestros Series 1: Martin Carthy. Was this info helpful? Yes No
-------------------------------------------------------------------------------
                             High Germany - Martin Carthy
-------------------------------------------------------------------------------
Tabbed by: Gareth Davies
E-mail: gareth90davies@btinternet.com

This is based on the version on the Sound Techniques DVD Guitar Maestros Series 1: Martin Carthy. 

Tuning: CGCDGA    

I've added an intro and a couple of verses in standard tuning at the end, in the key of Em (as opposed to Cm
for Martin's version).

I have also put a version of this on YouTube: https://youtu.be/yxgD7ragJ_Y 

Introduction

e|-10----------------------------------------3-|
B|--0---------0--0-0----0--------------------5-|
G|-10-----10--10------------0--------------0-5-|
D|--0--10-----8---------------0----------0---0-|
A|-------------------10---8-----3--0h3h5-------|
E|---------------------------------------------|

Verse
   Cm       Eb        Bb       Cm        Eb       Bb    Cm   Eb      Bb     Cm
e|--------|---------|---------|---------|--------|-------10-|--------------|--------|
B|-0------|-----0---|-3-------|---------|------0-|--------0-|------0-----0-|-0--0---|
G|-5----0-|---3-----|-3-----0-|-5-------|-----3--|-------10-|-10-------10--|----5---|
D|-0--0---|-3-----3-|---3-----|-0-------|--3-3---|-10-10--0-|----10--------|-0----0-|
A|-----5--|---------|------5--|-5-------|--------|----------|--------10----|--------|
E|--------|-3-------|---------|---------|-3------|----------|--------------|-0------|

  Eb        Bb    Cm   Eb         Bb       Cm         Eb       Bb      Cm   
e|--------|-------10-|-----------|--------|----------|--------|-------|------------|
B|------0-|--------0-|----0------|--------|-0--------|-----0--|-3-----|---0-0---0--|
G|-----3--|-------10-|-10--------|-0---5/6|-5--------|---3----|-3----0|-5-5-5---5--|
D|--3-3---|-10-10--0-|-10--------|--------|---0------|-3-----3|---3---|-0-0----0-0-|
A|--------|----------|------10--8|-10-----|-----5-5\3|--------|-----5-|-5----------|
E|-3------|----------|-----------|--------|-0--------|-3------|-------|-0----5x----|

Variation 1

e|--------|--------|---------|---------|---------|---------|--------|-------------|
B|-0------|------0-|-3-------|---------|-0------0|-0-------|------0-|-0--0-----0--|
G|-5----0-|--------|-3-----0-|-5-------|-10-10---|-10--10--|-10-10--|-10-10----10-|
D|-0--0---|-3--5---|---3-----|-0-------|-10---10-|-8--8----|---0----|---------0---|
A|-----5--|------0-|-----5---|-5-------|---------|-------10|-10-----|-------------|
E|--------|-3--5---|---------|---------|---------|---------|--------|-0----10x----|

e|-------------|------------|---------|---------|--------|------|-------|---------------|
B|-------------|------------|-0-------|---------|--------|-----0|-3-----|-----0--0---0--|
G|-10------6-8-|-10-------10|------8--|-0-------|-5-----0|---3--|-3----0|-5-/10-10---5--|
D|---10---7----|---10--10---|-------7-|-10---/10|---0----|-3---3|---3---|-0---0-----0-0-|
A|-------------|------------|--10-8---|-10------|-5---5--|------|-----5-|-5-------------|
E|-------------|------------|---------|------/10|--------|-3----|-------|-0-------0x----|

Variation 2

e|----------|---------|--------|-----|---------|----------|-----------|-----------|
B|---0------|-----0---|-3------|-----|-------0-|----------|---------0-|--0-0----0-|
G|-5--------|---3-----|-3-----0|-5---|-10-10---|-10-10----|-10-10-----|--5-5----5-|
D|-----0---0|-3-----3-|---3----|-0---|-10---10-|-8----8---|-------0---|--0-----0--|
A|-------5--|---------|------5-|-5---|---------|-------10-|-10--------|-----------|
E|---0------|-3-------|--------|-----|-0-------|-0--------|-----------|-0x---5x---|

e|---------|-------10-|---------|-------|---------|--------|-------|------|
B|-------0-|--------0-|---0--0--|-3-----|---------|-----0--|-3-----|-0----|
G|------3--|-/8-8--10-|-------3-|-3--5/6|-5-------|---3----|-3----0|-5----|
D|-3-3-3---|--------0-|-10-----3|-2-----|---0-----|-3-----3|---3---|-0----|
A|---------|----------|---------|-3-----|----5-5\3|--------|-----5-|-5----|
E|-3-------|----------|---------|-------|-0-------|-3------|-------|-0----|



Version in Standard Tuning

Introduction

e|-0---0-0---------------------------|
B|-0-3---1-0-0---0-----------------0-|
G|-------------2---0---------------0-|
D|-------------------4h2h0-----0-4-2-|
A|-------------------------2h4-----2-|
E|---------------------------------0-|


             Em         G   Em    D         Em     G           D   Em   G   D    Em
e|----------|---------|---------|---------|------|-----------|-----0---|--------|----|
B|------0h1-|-0-------|-----0---|-3-------|-0----|---------0-|-3-3-0---|3-0-3---|-0--|
G|----------|---0---0-|-0-2---0-|-2p0-----|-0----|-0-0-0h2---|-2-2-0--0|----2-0-|-0--|
D|----------|-----2---|-----2---|-0---2-0-|-2----|-----------|-0---2---|----0---|-2--|
A|----------|---------|---------|---------|-2----|-----------|-----2---|--------|-2--|
E|----------|-0-------|-3-------|---------|-0----|-3---------|-----0---|3-------|-0--|

   G           D    Em   G   Em     D        Em        G   Em    D         Em
e|-----------|------0---|---------|--------|---------|---------|---------|-0-----|
B|---------0-|-3-3--0---|3-0-0----|-3---0h1|-0-------|-----0---|-3-------|-0-----|
G|-0-0-0h2---|-2-2--0--0|-------0-|-2------|---0---0-|-0-2---0-|-2p0-----|-0-----|
D|-----------|-0----2---|----2----|-0------|-----2---|-----2---|-0---2-0-|-2-----|
A|-----------|------2---|---------|--------|---------|---------|---------|-2-----|
E|-3---------|------0---|3--------|--------|-0-------|-3-------|---------|-0-----|

Variation
             Em         G   Em    D         Em     Em7    Em(b13)  A9        Em
e|----------|---------|---------|---------|------|-------|-------|---------|--------|
B|------0h1-|-0-------|-----0---|-3-------|-0----|-3-3-0-|-1-1-0-|-0-0---0-|-0-0--0-|
G|----------|---0---0-|-0-2---0-|-2p0-----|-0----|-------|-------|-2-2---2-|-0-0--0-|
D|----------|-----2---|-----2---|-0---2-0-|-2----|-------|-------|-----2---|-----2--|
A|----------|---------|---------|---------|-2----|-2-----|-2-----|-0-------|--------|
E|----------|-0-------|-3-------|---------|-0----|-0--0--|-0--0--|---------|-0------|

   G6         G6       A9        D        Em        G   Em    D         Em
e|-0--------|-0------|---------|-2------|---------|---------|---------|-0-----|
B|--3-0h1-3-|--3---0-|-0-0---0-|-3---0h1|-0-------|-----0---|-3-------|-0-----|
G|----------|--------|-2-2---2-|-2------|---0---0-|-0-2---0-|-2p0-----|-0-----|
D|----0-----|----0---|-----2---|-0------|-----2---|-----2---|-0---2-0-|-2-----|
A|----------|--------|-0-------|--------|---------|---------|---------|-2-----|
E|-3--------|-3------|---------|--------|-0-------|-3-------|---------|-0-----|


************************************

| /   slide up
| \   slide down
| h   hammer-on
| p   pull-off
| ~   vibrato
| +   harmonic
| x   Mute note
| b   Bend
| pb  Pre-bend
| br  Bend release
| pbr Pre-bend release
| brb Bend release bend

************************************

            
            
Suggest correction
Creating personal tab
Creating personal tab
You can edit any tab online and save it as your Personal.

You can edit, replace or remove any tab part or add personal notes – all changes will be seen only by you.

Personal tabs can be accessed anytime from any device, even offline.
Learn more »
Give kudos to tab author, rate the tab!
1 2 3 4 5
comments
print report bad tab
guest
You may want to rate the tab now too:
select rating
Wanna post a correction for this tab? Suggest correction