Oops, an error
Loading. Please wait.

Waiting For Tomorrow tab

91 views 6 this week
no commentswrite comment
1 2 3 4 5
3 more votes to show rating
add to favorites
×
Save as Personal and add changes to this tab that will be seen only by you. Learn more ›
×
You can save this tab as Personal to edit and correct it or add notes. All changes will be seen only by you. Learn more »
launch autoscroll
font size
0
reset
how to read this tab
guitar tuner
edit
Autoscroll
slow
fast
+/-
esc
set tempo
stop
About this tab version
Correct with the drop-c# tuning. Was this info helpful? Yes No
drop-d half step down

[Intro/Verse]
e|--------------------------------------------|
B|-----------------------------------(2)------|
G|-----------4-----------------------(2)------|
D|----0------4------4----------------(2)------|
A|----0------2------4----------------(0)------|
E|----0------x------4-------------------------|
      D      B      F#

  D               B                   F#                   (A)
Remember, we were staring up to those Peaks on the horizon
  D                B                      F#                      (A)
I promised I would never stop it, In your name I would climb them

e|----------------------------------------|
B|-----------------------------------2----|
G|----7------4-----------------------2----|
D|----7------4-----4-----------------2----|
A|----5------2-----4-----------------0----|
E|-----------X-----4----------------------|
     D5     B5     F#                A

                D5            B5            F#                    A
There's nothing I have wanted more the only one I've been waiting for
             D5                     B5                F#                  A
So hold your breath, and close your eyes the end is unknown, but still we rise

[Chorus]
e|--------------------------------------------|
B|-----------------------------------(2)------|
G|-----------4-----------------------(2)------|
D|----0------4------4----------------(2)------|
A|----0------2------4----------------(0)------|
E|----0------x------4-------------------------|
      D      B      F#

D            B           F#                                           (A)
Coming down, to the life through the night, just waiting for tomorrow
D            B           F#                          (A)
Almost there, almost time All my life, just waiting...

          D            B          F#                      D            B          F#
It's only one more day, it's only one more day, It's only one more day, it's only one more

Waiting for tomorrow...

[Verse]
e|--------------------------------------------|
B|-----------------------------------(2)------|
G|-----------4-----------------------(2)------|
D|----0------4------4----------------(2)------|
A|----0------2------4----------------(0)------|
E|----0------x------4-------------------------|
      D      B      F#

D           B             F#                                           (A)
Coming down, to the light Through the night, just waiting for tomorrow
D            B            F#                                     (A)
Almost there, almost time All my life, just waiting for tomorrow

D           B             F#                                           (A)
Coming down, to the light Through the night, just waiting for tomorrow
D            B            F#                                     (A)
Almost there, almost time All my life, just waiting for tomorrow



************************************

| (n)  Ghost note
| x    Dead note


************************************

            
            
Suggest correction
Creating personal tab
Creating personal tab
You can edit any tab online and save it as your Personal.

You can edit, replace or remove any tab part or add personal notes – all changes will be seen only by you.

Personal tabs can be accessed anytime from any device, even offline.
Learn more »
Give kudos to tab author, rate the tab!
1 2 3 4 5
comments
print report bad tab
guest
You may want to rate the tab now too:
select rating
Wanna post a correction for this tab? Suggest correction