Oops, an error
Loading. Please wait.

Angel tab

version 1
version 1

Whole song

Interactive

17,103 views 12 this week
no commentswrite comment
1 2 3 4 5
x 5
add to favorites
×
Save as Personal and add changes to this tab that will be seen only by you. Learn more ›
×
You can save this tab as Personal to edit and correct it or add notes. All changes will be seen only by you. Learn more »
launch autoscroll
font size
0
reset
how to read this tab
guitar tuner
edit
Autoscroll
slow
fast
+/-
esc
set tempo
stop
hb:Half Bend
fb:Full Bend
r:Release
hbr:Half Bend Release
fbr:Full Bend Release
fhbr:Full and a Half Bend Release
phbr:Pre-Half Bend Release
pfbrPre-Full Bend Release


Main Lead                                                                    
e |-------------------------------|--------------------------------|
B |-------------------------------|--------------------------------|
G |-------------------------------|--------------------------------|
D |2--4--6/9-9\4~--4/6-4\2--------|--2--4--6/9-9\4~--4/6-4\2-4/7~--|
A |------------------------2/4~~--|--------------------------------|
E |-------------------------------|--------------------------------|


                                                                       

e |---------------------------------------------|---------------------|
B |---------------------------------------------|---------------------|
G |---------------------------------------------|-----6--8-8hb~~-8hbr-|
D |2--4--6--9--11--11/13\11-9------9~~--11p9~~~-|--6------------------|
A |---------------------------11-9--------------|---------------------|
E |---------------------------------------------|---------------------|


                                                                       

e |----------------------------------------|--------------------------|
B |----------------------------------------|--------------------------|
G |6--6fb---6fbr(6)p4--6~~~---6h8p6p4-6~~--|-4------------------------|
D |----------------------------------------|---6p4\2-----4/6p4\2------|
A |----------------------------------------|---------4p2---------4p2\-|
E |----------------------------------------|--------------------------|


                                                                      

e |-------------------------|----------------------------12-14-16hb~-|
B |-------------------------|-------------------12-14-16-------------|
G |---6--8-8hb---8hbr-6--9--|----------11-13-14----------------------|
D |6------------------------|-11-13-14-------------------------------|
A |-------------------------|----------------------------------------|
E |-------------------------|----------------------------------------|


                                                            
Main Lead ends
e |(16)~~~--17hb~~~-|--------------------------------------|
B |-----------------|--------------------------------------|
G |-----------------|------------------%-------------------|
D |-----------------|------------------%-------------------|
A |-----------------|--------------------------------------|
E |-----------------|--------------------------------------|


                                                                     
Solo 1
e |---12--------------12--------------------------------------------|
B |12----12-15fb~~~~-----12----14hb--12-----14----12----------------|
G |-------------------------14-14hb--12-----14----12----12-14~----12|
D |--------------------------------------14----14----14--------14---|
A |-----------------------------------------------------------------|
E |-----------------------------------------------------------------|


                                                                

e |------------------15fhbr-15-12------------------------------|
B |15fb~~~~r(15)-12---------------15-12------------------------|
G |-------------------------------------14hbr(14)p12----12fb~~-|
D |--------------------------------------------------14--------|
A |------------------------------------------------------------|
E |------------------------------------------------------------|


                                                             

e |-------------------|-------------------------------------|
B |-------------------|-------------------------------------|
G |14hbr(14)p12-------|-------------------------------------|
D |-------------14~~~-|--12---------------------------------|
A |-------------------|-----14-13-12-10-12hbr(12)-10--------|
E |-------------------|------------------------------12~~~--|


                                                                      

e |------------7-10/14-10h14p10--------------------------------------|
B |----------7------------------12--------14hb--14hb--14hb-----------|
G |--------7-----------------------11/12--14hb--14hb--14hb--12-------|
D |------9------------------------------------------------------14~~-|
A |--5-9-------------------------------------------------------------|
E |5-----------------------------------------------------------------|


                                                                    
Solo 2
e |----------------------------------------14--17fbr(17)-----------|
B |--------14-17fb~~~-----------14-17fb~~-----------------17fb~~~--|
G |/15-16---------------/15-16-------------------------------------|
D |----------------------------------------------------------------|
A |----------------------------------------------------------------|
E |----------------------------------------------------------------|



                                                                      
e |--------------------------------------------|----------------------|
B |----14-16-16hb--16phbr(16)p14-----14--------|----------14--17fb~~--|
G |--x----------------------------16----14~~~--|--/15-16--------------|
D |x-------------------------------------------|----------------------|
A |--------------------------------------------|----------------------|
E |--------------------------------------------|----------------------|


                                                                  

e |-------------------14-17fbr(17)-14-------14-19p14----14-17p14-|
B |--------14-17fb~~------------------17fb-----------17----------|
G |/15-16--------------------------------------------------------|
D |--------------------------------------------------------------|
A |--------------------------------------------------------------|
E |--------------------------------------------------------------|


                                                                    

e |---17p14----14--------------------------------------------------|
B |17-------17----17p14----14-------------14-----------------------|
G |---------------------17----17p16p14-17----17p16p14-16fbr(16)p14-|
D |----------------------------------------------------------------|
A |----------------------------------------------------------------|
E |----------------------------------------------------------------|


                                                                       
                                     Solo 3
e |---------------------------------||--------------------------------|
B |17fb-----------------------------||--------------------------------|
G |-----16pfbr(16)p14----16-14~~~~--||-2fb--2-2-2--(2)rp0-2-2~~-------|
D |-------------------16------------||----------------------------2-2-|
A |---------------------------------||--------------------------------|
E |---------------------------------||--------------------------------|


                                                                

e |-------------|----------------------------------------------|
B |-------------|--------------5-------------------------------|
G |-------------|----------4/6----6---6--9--16fb-----(16)r~~~--|
D |2-2/4--------|-2--4-4/6-------------------------------------|
A |------5-5~~--|----------------------------------------------|
E |-------------|----------------------------------------------|


                                                                         
                                                      Solo 4
e |--------------------------------------------------|-----------------|
B |--------------------------------------------------|---------14-17fb-|
G |14-13-13hb~~~-r(13)--9--13hb~~~-11~--11fb~~~--9~~-|-/15-16----------|
D |--------------------------------------------------|-----------------|
A |--------------------------------------------------|-----------------|
E |--------------------------------------------------|-----------------|


                                                                    

e |------------------14--19fb~~r(19)--14------------------14-------|
B |--------14-17fb~~---------------------14-17p14------14----17p14-|
G |/15-16-----------------------------------------16fb-------------|
D |----------------------------------------------------------------|
A |----------------------------------------------------------------|
E |----------------------------------------------------------------|


                                                                  

e |--------14-17p14----------------------------------------------|
B |-----14----------17p14------14-17p14--------------------14~~--|
G |16fb-------------------16fb----------16fbr(16)p14----16-14~~--|
D |--------------------------------------------------16----------|
A |--------------------------------------------------------------|
E |--------------------------------------------------------------|


                                                                      
Main Lead
e |------------------------------------------------------------------|
B |------------------------------------------------------------------|
G |-------------------------------%----------------------------------|
D |-------------------------------%----------------------------------|
A |------------------------------------------------------------------|
E |------------------------------------------------------------------|


                                                                    
Outro
e |------------------------------------------------------16-19~~~--|
B |---------------------------------------------------17-----------|
G |---6--8-9~~---(9)/11~~~--(11)/13~~~--(13)/16~~--16--------------|
D |6---------------------------------------------------------------|
A |----------------------------------------------------------------|
E |----------------------------------------------------------------|


                                                      

e |0---0---0----0-0---0--0----|--2---2-----------------------------|
B |0---0---0----0-0---0--0----|--3---3----2------------------------|
G |1---1---1h2--2-2---2--1----|--2---2----2------------------------|
D |2---2---2----2-2---2--2--0-|--0---0----2---2--0-----------------|
A |2---2---2----2-2---2-------|-----------0---------2--0-----------|
E |0---0---0----0-0---0-------|---------------------------3~~~--0--|


                                                                      

e |----------------------------------------|---------------4/5-------|
B |10--9h10p9------------------------------|-------------5-----7-----|
G |-----------9----------------------------|-----------4----------7~~|
D |-------------9\7--6h7p6-----------------|-------2-6---------------|
A |------------------------7---------------|-----2-------------------|
E |--------------------------7-/5-4h5p4--2-|-0-4---------------------|


                                                
End
e |--------------------------------------------| 
B |/10--9h10p9---10----------------------------|  
G |------------9----9--6~~--9-6h9p6--4/6\4~~~--| 
D |--------------------------------------------| 
A |--------------------------------------------|
E |--------------------------------------------|

            
            
Suggest correction
Creating personal tab
Creating personal tab
You can edit any tab online and save it as your Personal.

You can edit, replace or remove any tab part or add personal notes – all changes will be seen only by you.

Personal tabs can be accessed anytime from any device, even offline.
Learn more »
comments
print report bad tab
guest
You may want to rate the tab now too:
select rating
Wanna post a correction for this tab? Suggest correction