Oops, an error
Loading. Please wait.

Devil Take Tomorrow intro tab

version 1
version 1

Intro

Interactive

16,849 views 15 this week
1 commentread comment
1 2 3 4 5
x 4
add to favorites
×
Save as Personal and add changes to this tab that will be seen only by you. Learn more ›
×
You can save this tab as Personal to edit and correct it or add notes. All changes will be seen only by you. Learn more »
launch autoscroll
font size
0
reset
how to read this tab
guitar tuner
backing track
0:00
0:00
edit
Autoscroll
slow
fast
+/-
esc
set tempo
stop
------------------------------------------------------------------------------------------

                     DEVIL TAKE TOMORROW (intro) - Marty Friedman
-------------------------------------------------------------------------------

#----------------------------------PLEASE NOTE---------------------------------#
#This file is the author's own work and represents their interpretation of the #
#song. You may only use this file for private study, scholarship, or research. #
#------------------------------------------------------------------------------#

Tabbed by:thefoldarsoldar
Email:brandonce@gmail.com

This song is off Friedman's latest album entitled "Loudspeaker," and if you are familiar 
Marty's style, you know he's a master of vibrato, bends, and unusual string techniques. 
to the song to get these details perfect.

Note: the bars dividing the song do not create accurate measures. Again, listen to the 
for the rhythm.

Tuning:E standard

e|----------------------------------|------------------------------------------|
b|----------------------------------|------------------------------------------|
g|----------------------------------|--/8-8-10-(10)pb11r10b11~~-11r10-------10/8-|
d|---6/8~~~-8-9-11-6~gb~br/4~~------|------------------------------------------|
a|-4--------------------------------|------------------------------------------|
e|----------------------------------|------------------------------------------|


e|-------------------------------------------------|---------------------------|
b|-------------------------------------------------|---------------------------|
g|-8-10--------------------------------------------|----6~-8/11~-8-------------|
d|------6/8~~-8/11-------6-8-8-9------/6~~gb7r-4~--|-/8--------------6b7r6/4~~-|
a|-------------------9-------------6~~-------------|---------------------------|
e|-------------------------------------------------|---------------------------|

e|-------------------------------------|--------------------------------------|
B|-------------------------------------|--------------------------------------|
G|--/8-10-11-b13~-11.-10.-11p10-8------|---3/11~-----------8------------------|
D|----------------------------------11~|~--------8p6-8/11~--6br-/4~~----------|
A|-------------------------------------|--------------------------------------|
e|-------------------------------------|--------------------------------------|

key:

/         slide
~        vibrato
b         bend
gb       gradual bend
r         release (a bend)
()pb    prebend, then pick
.        play slightly behind the beat
h        hammer on
p        pull off
===============================================================================

            
            
Suggest correction
Creating personal tab
Creating personal tab
You can edit any tab online and save it as your Personal.

You can edit, replace or remove any tab part or add personal notes – all changes will be seen only by you.

Personal tabs can be accessed anytime from any device, even offline.
Learn more »
comments
print report bad tab
1 comment total.
0 reply
nightraven 60 Sep 13, 2007 10:05 AM

Thanks a lot foldar

guest
You may want to rate the tab now too:
select rating
Wanna post a correction for this tab? Suggest correction