Oops, an error
Loading. Please wait.

My Woman My Woman My Wife bass

40 views 1 this week
no commentswrite comment
1 2 3 4 5
3 more votes to show rating
add to favorites
×
Save as Personal and add changes to this tab that will be seen only by you. Learn more ›
×
You can save this tab as Personal to edit and correct it or add notes. All changes will be seen only by you. Learn more »
launch autoscroll
font size
0
reset
guitar tuner
edit
Autoscroll
slow
fast
+/-
esc
set tempo
stop
Author
Difficulty
Tabbed Tabbed by: 6METAL6BASSIST6
E-mail: petergriffinav@gmail.com

Tuning: EADG

G|------------------------------------------------------------------------------------------------|
D|------------------------------------------------------------------------------------------------|
A|3-------------------3---3-------------------3---3-------------------3---3-------------------3---|
E|------------------------------------------------------------------------------------------------|

0:07

G|------------------------------------------------------------------------------------------------|
D|------------------------------------------------2-------------------2---2-------------------2---|
A|3-------------------3---3-------------------3---------------------------------------------------|
E|------------------------------------------------------------------------------------------------|

G|------------------------------------------------------------------------------------------------|
D|3-------------------3---3-------------------3---5-------------------5---5-------------------5---|
A|------------------------------------------------------------------------------------------------|
E|------------------------------------------------------------------------------------------------|

0:21

G|------------------------------------------------------------------------------------------------|
D|------------------------------------------------2-------------------2---2-------------------2---|
A|3-------------------3---3-------------------3---------------------------------------------------|
E|------------------------------------------------------------------------------------------------|

G|------------------------------------------------------------------------------------------------|
D|3-------------------3---3-------------------3---5-------------------5---5-----------------------|
A|--------------------------------------------------------------------------------------------2---|
E|------------------------------------------------------------------------------------3---5-------|

0:37

G|------------------------------------------------------------------------------------------------|
D|------------------------------------------------2-------------------2---2-------------------2---|
A|3-------------------3---3-------------------3---------------------------------------------------|
E|------------------------------------------------------------------------------------------------|

G|------------------------------------------------------------------------------------------------|
D|3-------------------3---3-------------------3---5---------------3-------------------------------|
A|--------------------------------------------------------------------5-----------------------2---|
E|------------------------------------------------------------------------3-----------3---5-------|

0:49

G|----------------------------------------1-----------------------------------------------5-------|
D|----------------0---1---2-------------------2---3-------------------3---3-------------------3---|
A|3-----------------------------------------------------------------------------------------------|
E|------------------------------------------------------------------------------------------------|

G|------------------------------------------------------------------------------------------------|
D|5-------------------5---5-------------------5---------------------------------------------------|
A|------------------------------------------------3-------------------3---3-------------------2---|
E|------------------------------------------------------------------------------------3---5-------|

1:03

G|------------------------------------------------------------------------------------------------|
D|------------------------------------------------2-------------------2---2-------------------2---|
A|3-------------------3---3-------------------3---------------------------------------------------|
E|------------------------------------------------------------------------------------------------|

G|------------------------------------------------------------------------------------------------|
D|3-------------------3---3-------------------3---5-------------------5---5-----------------------|
A|------------------------------------------------------------------------------------------------|
E|--------------------------------------------------------------------------------------------3---|

1:17

G|------------------------------------------------------------------------------------------------|
D|------------------------------------------------2-------------------2---2-------------------2---|
A|3-------------------3---3-------------------3---------------------------------------------------|
E|------------------------------------------------------------------------------------------------|

G|------------------------------------------------------------------------------------------------|
D|3-------------------3---3-------------------3---5-------------------5---5---------------3-------|
A|--------------------------------------------------------------------------------------------5---|
E|------------------------------------------------------------------------------------------------|

1:31

G|------------------------------------------------------------------------------------------------|
D|------------------------------------------------2-------------------2---2-------------------2---|
A|3-------------------3---3-------------------3---------------------------------------------------|
E|------------------------------------------------------------------------------------------------|

G|------------------------------------------------------------------------------------------------|
D|3-------------------3---3-------------------3---5---------------3-------------------------------|
A|--------------------------------------------------------------------5-----------------------2---|
E|------------------------------------------------------------------------3-----------3---5-------|

1:45

G|----------------------------------------1-----------------------------------------------5-------|
D|----------------0---1---2-------------------2---3-------------------3---3-------------------3---|
A|3-----------------------------------------------------------------------------------------------|
E|------------------------------------------------------------------------------------------------|

G|------------------------------------------------------------------------5-----------5-----------|
D|5-------------------5---5-------------------5-----------------------5-------5---5-------5-------|
A|------------------------------------------------3-------------------------------------------3---|
E|------------------------------------------------------------------------------------------------|

1:59

G|------------------------------------------------------------------------------------------------|
D|------------------------------------------------2-------------------2---2---------------3---5---|
A|3-------------------3---3-------------------3---------------------------------------------------|
E|------------------------------------------------------------------------------------------------|

G|------------------------------------------------------------------------5-----------4-----------|
D|------------------------5-------------------5---------------------------------------------------|
A|5-------------------5---------------------------3-----------------------------------------------|
E|------------------------------------------------------------------------------------------------|

2:13

G|------------------------------------------------------------------------------------------------|
D|7-----------------------7---------------5---3---2-----------------------2-----------------------|
A|--------------------7-----------------------------------------------2-------------------5---2---|
E|------------------------------------------------------------------------------------------------|

G|------------------------------------------------------------------------------------------------|
D|----------------------------------------2---3---5-----------------------------------------------|
A|----------------2---3---5---------------------------------------5---------------------------2---|
E|5-----------------------------------------------------------------------3-----------3---5-------|

2:27

G|------------------------------------------------------------------------------------------------|
D|------------------------------------------------2-------------------2---2-------------------2---|
A|3-------------------3---3-------------------3---------------------------------------------------|
E|------------------------------------------------------------------------------------------------|

G|------------------------------------------------------------------------------------------------|
D|3-------------------3---3-------------------3---5-------------------5---5-------------------5---|
A|------------------------------------------------------------------------------------------------|
E|------------------------------------------------------------------------------------------------|

2:41

G|------------------------------------------------------------------------------------------------|
D|------------------------------------------------2-------------------2---2-------------------2---|
A|3-------------------3---3-------------------3---------------------------------------------------|
E|------------------------------------------------------------------------------------------------|

G|------------------------------------------------------------------------------------------------|
D|3-------------------3---3-------------------3---5-------------------5---5-----------------------|
A|--------------------------------------------------------------------------------------------2---|
E|------------------------------------------------------------------------------------3---5-------|

2:55

G|----------------------------------------------------------------------------------------4-------|
D|----------------------------------------0---1---2-------------------2---2-------------------2---|
A|3-------------------3---3-----------------------------------------------------------------------|
E|------------------------------------------------------------------------------------------------|

G|----------------------------------------5-------------------------------------------------------|
D|3-------------------3---3-------------------3---5---------------3-------------------5---5-------|
A|--------------------------------------------------------------------5-------5---2---------------|
E|------------------------------------------------------------------------3-------------------3---|

3:08

G|----------------------------------------1-----------------------------------------------5-------|
D|----------------0---1---2-------------------2---3-------------------3---3-------------------3---|
A|3-----------------------------------------------------------------------------------------------|
E|------------------------------------------------------------------------------------------------|

G|------------------------------------------------------------------------------------------------|
D|5-----------5---5---5---5-----------2---3---4---5-----------5---5---5---5-----------6-----------|
A|------------------------------------------------------------------------------------------------|
E|------------------------------------------------------------------------------------------------|

G|--------------------------------------------------------------------------------|
D|7-----------------------6-----------5-----------5-------------------------------|
A|----------------------------------------------------------------------------3---|
E|--------------------------------------------------------------------------------|

            
            
Suggest correction
Creating personal tab
Creating personal tab
You can edit any tab online and save it as your Personal.

You can edit, replace or remove any tab part or add personal notes – all changes will be seen only by you.

Personal tabs can be accessed anytime from any device, even offline.
Learn more »
Give kudos to tab author, rate the tab!
1 2 3 4 5
comments
print report bad tab
guest
You may want to rate the tab now too:
select rating
Wanna post a correction for this tab? Suggest correction