Oops, an error
Loading. Please wait.

Utah Carol bass

40 views 1 this week
no commentswrite comment
1 2 3 4 5
3 more votes to show rating
add to favorites
×
Save as Personal and add changes to this tab that will be seen only by you. Learn more ›
×
You can save this tab as Personal to edit and correct it or add notes. All changes will be seen only by you. Learn more »
launch autoscroll
font size
0
reset
guitar tuner
edit
Autoscroll
slow
fast
+/-
esc
set tempo
stop
Tabbed by: 6METAL6BASSIST6
E-mail: petergriffinav@gmail.com

Tuning: EADG

G|----------------------------------------------------------------|
D|----------------------------------------------------------------|
A|6---------------6---------------6---------------6-------3---5---|
E|--------6---------------6---------------6-----------6-----------|

0:06

G|----------------------------------------------------------------|
D|------------------------3---5---6-------6-----------------------|
A|6---------------6-------------------------------6---------------|
E|--------6----------------------------------------------6--------|

G|----------------------------------------------------------------|
D|--------------------------------------------------------3---5---|
A|6---------------6-------6-----------------------6---------------|
E|--------6-----------------------6-------6-----------------------|

G|----------------------------------------------------------------|
D|6-------6---------------3---5---6-------6-----------------------|
A|----------------6-------------------------------6---------------|
E|-------------------------------------------------------6--------|

G|----------------------------------------------------------------|
D|----------------------------------------------------------------|
A|6---------------6-------6-----------------------6---------------|
E|--------6-----------------------6-------6---------------6-------|

0:29

G|----------------------------------------------------------------|
D|------------------------3---5---6-------6-----------------------|
A|6---------------6-------------------------------6---------------|
E|--------6----------------------------------------------6--------|

G|----------------------------------------------------------------|
D|--------------------------------------------------------3---5---|
A|6---------------6-------6-----------------------6---------------|
E|--------6-----------------------6-------6-----------------------|

G|----------------------------------------------------------------|
D|6-------6-----------------------6-------6-----------------------|
A|----------------6-------6-----------------------6---------------|
E|-------------------------------------------------------6--------|

G|----------------------------------------------------------------|
D|--------------------------------------------------------8---5---|
A|6---------------6-------6-----------------------6---------------|
E|--------6-----------------------6-------6-----------------------|

0:51

G|----------------------------------------------------------------|
D|------------------------3---5---6-------6-----------------------|
A|6---------------6-------------------------------6---------------|
E|--------6----------------------------------------------6--------|

G|----------------------------------------------------------------|
D|--------------------------------------------------------3---5---|
A|6---------------6-------6-----------------------6---------------|
E|--------6-----------------------6-------6-----------------------|

G|----------------------------------------------------------------|
D|6-------6-----------------------6-------6-----------------------|
A|----------------6-------6-----------------------6---------------|
E|-------------------------------------------------------6--------|

G|----------------------------------------------------------------|
D|----------------------------------------------------------------|
A|6---------------6-------6-----------------------6-----------5---|
E|--------6-----------------------6-------6---------------6-------|

1:14

G|----------------------------------------------------------------|
D|--------------------------------6-------6-----------------------|
A|6---------------6-------6-----------------------6---------------|
E|--------6----------------------------------------------6--------|

G|----------------------------------------------------------------|
D|--------------------------------------------------------3---5---|
A|6---------------6-------6-----------------------6---------------|
E|--------6-----------------------6-------6-----------------------|

G|----------------------------------------------------------------|
D|6-------6-----------------------6-------6-----------------------|
A|----------------6-------6-----------------------6---------------|
E|-------------------------------------------------------6--------|

G|----------------------------------------------------------------|
D|----------------------------------------------------------------|
A|6---------------6-------6-----------------------6-----------5---|
E|--------6-----------------------6-------6---------------6-------|

1:37

G|----------------------------------------------------------------|
D|--------------------------------6-------6-----------------------|
A|6---------------6-------6-----------------------6---------------|
E|--------6----------------------------------------------6--------|

G|----------------------------------------------------------------|
D|--------------------------------------------------------3---5---|
A|6---------------6-------6-----------------------6---------------|
E|--------6-----------------------6-------6-----------------------|

G|----------------------------------------------------------------|
D|6-------6-------------------5---6-------6-----------------------|
A|----------------6-------6-----------------------6---------------|
E|-------------------------------------------------------6--------|

G|----------------------------------------------------------------|
D|--------------------------------------------------------8---5---|
A|6---------------6-------6-----------------------6---------------|
E|--------6-----------------------6-------6-----------------------|

1:59

G|----------------------------------------------------------------|.
D|------------------------3---5---6-------6-----------------------|.
A|6---------------6-------------------------------6---------------|.
E|--------6----------------------------------------------6--------|.
                                                                   .
G|----------------------------------------------------------------|.
D|--------------------------------------------------------5---8---|.
A|6---------------6-------6-----------------------6---------------|.
E|--------6-----------------------6-------6-----------------------|.
                                                                   . x2
G|----------------------------------------------------------------|.
D|6-------6-----------------------6-------6-----------------------|.
A|----------------6-------6-----------------------6---------------|.
E|-------------------------------------------------------6--------|.
                                                                   .
G|----------------------------------------------------------------|.
D|--------------------------------------------------------8---5---|.
A|6---------------6-------6-----------------------6---------------|.
E|--------6-----------------------6-------6-----------------------|.

2:44

G|----------------------------------------------------------------|
D|--------------------------------6-------6-----------------------|
A|6---------------6-------6-----------------------6---------------|
E|--------6----------------------------------------------6--------|

G|----------------------------------------------------------------|
D|--------------------------------------------------------5---8---|
A|6---------------6-------6-----------------------6---------------|
E|--------6-----------------------6-------6-----------------------|

G|----------------------------------------------------------------|
D|6-------6-----------------------6-------6-----------------------|
A|----------------6-------6-----------------------6---------------|
E|-------------------------------------------------------6--------|

G|----------------------------------------------------------------|
D|----------------------------------------------------------------|
A|6---------------6-------6---------------------------------------|
E|--------6-----------------------6-----------6-------------------|

G|--------------------------------|
D|--------------------------------|
A|----------------------------6---|
E|--------------------------------|

            
            
Suggest correction
Creating personal tab
Creating personal tab
You can edit any tab online and save it as your Personal.

You can edit, replace or remove any tab part or add personal notes – all changes will be seen only by you.

Personal tabs can be accessed anytime from any device, even offline.
Learn more »
Give kudos to tab author, rate the tab!
1 2 3 4 5
comments
print report bad tab
guest
You may want to rate the tab now too:
select rating
Wanna post a correction for this tab? Suggest correction