Oops, an error
Loading. Please wait.

Plaguebearer tab

version 1
version 1

Whole song

Interactive

738 views 1 this week
no commentswrite comment
1 2 3 4 5
3 more votes to show rating
add to favorites
×
Save as Personal and add changes to this tab that will be seen only by you. Learn more ›
×
You can save this tab as Personal to edit and correct it or add notes. All changes will be seen only by you. Learn more »
launch autoscroll
font size
0
reset
how to read this tab
guitar tuner
edit
Autoscroll
slow
fast
+/-
esc
set tempo
stop
Martyr Defiled - Plaguebearer Featuring Steve Regan

http://www.martyrdefiled.co.uk

Ali's Guitar

       |--3--|  |--3--|  |--3--|  |--3--|
       E  E  E  E  E  E  E  E  E  E  E  E
B ||---------------------------------------|
F#||---------------------------------------|
D ||---------------------------------------|
A ||---------------------------------------|
E ||------------3--6--3-----------3--6--3--|
A ||---0--2--5-----------0--2--5-----------|


  |--3--|  |--3--|  |--3--|  |--3--|     |--3--|  |--3--|  |--3--|  |--3--|
  E  E  E  E  E  E  E  E  E  E  E  E     E  E  E  E  E  E  E  E  E  E  E  E
--------------------------------------|--------------------------------------|
--------------------------------------|--------------------------------------|
--------------------------------------|--------------------------------------|
--------------------------------------|--------------------------------------|
-----------3--6--3--6--3-----3--------|-----------3--6--3-----------3--6--3--|
--0--2--5-----------------7-----7--4--|--0--2--5-----------0--2--5-----------|


  |--3--|  |--3--|  |--3--|  |--3--|     |--3--|  |--3--|  |--3--|  |--3--|
  E  E  E  E  E  E  E  E  E  E  E  E     E  E  E  E  E  E  E  E  E  E  E  E
--------------------------------------|--------------------------------------|
--------------------------------------|--------------------------------------|
--------------------------------------|--------------------------------------|
--4--1-----1--------------------------|--------------------------------------|
--------3-----3--0--3--0-----0--------|-----------3--6--3-----------3--6--3--|
--------------------------4-----4--1--|--0--2--5-----------0--2--5-----------|


  |--3--|  |--3--|  |--3--|  |--3--|     |--3--|  |--3--|  |--3--|  |--3--|
  E  E  E  E  E  E  E  E  E  E  E  E     E  E  E  E  E  E  E  E  E  E  E  E
--------------------------------------|--------------------------------------|
--------------------------------------|--------------------------------------|
--------------------------------------|--------------------------------------|
--------------------------------------|--------------------------------------|
-----------3--6--3--6--3-----3--------|-----------3--6--3-----------3--6--3--|
--0--2--5-----------------7-----7--4--|--0--2--5-----------0--2--5-----------|


  |--3--|  |--3--|               |--3--|  |--3--|  |--3--|  |--3--|
  E  E  E  E  E  E  Q    Q       E  E  E  E  E  E  E  E  E  E  E  E
------------------------------|--------------------------------------|
------------------------------|--------------------------------------|
------------------------------|--------------------------------------|
------------------------------|--------------------------------------|
--6--3-----3--------4----1----|-----------5--5--5--6--6--6-----------|
--------7-----7--4--6----3----|--0--0--0--------------------0--0--0--|


  |--3--|  |--3--|  |--3--|  |---3--|     |--3--|  |--3--|  |--3--|  |--3--|
  E  E  E  E  E  E  E  E  E  E   E  E     E  E  E  E  E  E  E  E  E  E  E  E
---------------------------------------|--------------------------------------|
---------------------------------------|--------------------------------------|
---------------------------------------|--------------------------------------|
-----------------------------7--10--7--|--------------------------------------|
-----------5--8--5--6--9--6------------|-----------5--5--5--6--6--6-----------|
--4--7--4------------------------------|--0--0--0--------------------0--0--0--|


  |--3--|  |--3--|  |----3----|       |--3--|  |--3--|  |--3--|  |--3--|
  E  E  E  E  E  E  Q    Q    Q       E  E  E  E  E  E  E  E  E  E  E  E
-----------------------------------|--------------------------------------|
-----------------------------------|--------------------------------------|
-----------------------------------|--------------------------------------|
-----------------------------------|--------------------------------------|
--6--3-----3--------4----2----1----|-----------5--5--5--6--6--6-----------|
--------7-----7--4--6----4----3----|--0--0--0--------------------0--0--0--|


  |--3--|  |--3--|  |--3--|  |---3--|     |--3--|  |--3--|  |--3--|  |--3--|
  E  E  E  E  E  E  E  E  E  E   E  E     E  E  E  E  E  E  E  E  E  E  E  E
---------------------------------------|--------------------------------------|
---------------------------------------|--------------------------------------|
---------------------------------------|--------------------------------------|
-----------------------------7--10--7--|--------------------------------------|
-----------5--8--5--6--9--6------------|-----------5--5--5--6--6--6-----------|
--4--7--4------------------------------|--0--0--0--------------------0--0--0--|


                                               TP       TP   TP
  |-3-| |-3-| |-3-| |-3-| |--3--|  |--3--|
  S S S S S S S S S S S S E  E  E  E  E  E     H        Q    Q
--------------------------------------------|---------------------|
--------------------------------------------|---------------------|
--------------------------------------------|---------------------|
-----------------------------4-----4-----4--|---------------------|
--------------------------------------------|-----------5----6----|
--4-4-4-4-4-4-1-1-1-1-1-1-1-----1-----1-----|--0------------------|


                                         TP       TP   TP
  |--3--|  |--3--|  |--3--|  |--3--|
  E  E  E  E  E  E  E  E  E  E  E  E     H        Q    Q
--------------------------------------|---------------------|
--------------------------------------|---------------------|
--------------------------------------|---------------------|
--4--1-----1--------------------------|---------------------|
--------3-----3--0--3--0-----0--------|-----------5----6----|
--------------------------4-----4--1--|--0------------------|


                                          TP       TP   TP
  |--3--|  |--3--|  |--3--|  |---3--|
  E  E  E  E  E  E  E  E  E  E   E  E     H        Q    Q
---------------------------------------|---------------------|
---------------------------------------|---------------------|
---------------------------------------|---------------------|
-----------------------------7--10--7--|---------------------|
-----------5--8--5--6--9--6------------|-----------5----6----|
--4--7--4------------------------------|--0------------------|


                                         TP       TP   TP
  |--3--|  |--3--|  |--3--|  |--3--|
  E  E  E  E  E  E  E  E  E  E  E  E     H        Q    Q
--------------------------------------|---------------------|
--------------------------------------|---------------------|
--------------------------------------|---------------------|
--4--1-----1--------------------------|---------------------|
--------3-----3--0--3--0-----0--------|-----------5----6----|
--------------------------4-----4--1--|--0------------------|


  |--3--|  |--3--|  |--3--|  |---3--|
  E  E  E  E  E  E  E  E  E  E   E  E
---------------------------------------|
---------------------------------------|
---------------------------------------|
-----------------------------7--10--7--|
-----------5--8--5--6--9--6------------|
--4--7--4------------------------------|


   |---3--|  |---3--|   |--3--|  |--3--|
   E  E   E  E   E  E   E  E  E  E  E  E     Q    Q    Q    Q
------------------------------------------|----------------------|
------------------------------------------|----------------------|
--11--8------8----------------------------|----------------------|
---------10-----10--7--10--7-----7--------|----------------------|
------------------------------9-----9--6--|----------------------|
------------------------------------------|----------------------|


  |--3--|  |--3--|  |--3--|  |--3--|     |--3--|  |--3--|  |--3--|  |--3--|
  E  E  E  E  E  E  E  E  E  E  E  E     E  E  E  E  E  E  E  E  E  E  E  E
--------------------------------------|--------------------------------------|
--------------------------------------|--------------------------------------|
--------------------------------------|--------------------------------------|
--------------------------------------|--------------------------------------|
--------------------------------------|--------------------------------------|
--0--0--0--0--------------------------|-----------0--0--0--0-----------------|


  |--3--|  |--3--|  |--3--|  |--3--|     |--3--|  |--3--|  |--3--|  |--3--|
  E  E  E  E  E  E  E  E  E  E  E  E     E  E  E  E  E  E  E  E  E  E  E  E
--------------------------------------|--------------------------------------|
--------------------------------------|--------------------------------------|
--------------------------------------|--------------------------------------|
--------------------------------------|--------------------------------------|
--------------------------------------|--------------------------------------|
--------------------0--0--0--0--------|--------------------------------------|


  W                   Q    Q    Q    Q       W
-------------------|----------------------|-------------------|
-------------------|----------------------|-------------------|
-------------------|----------------------|-------------------|
--3----------------|--L----2----3----2----|-------------------|
--5----------------|--L----4----5----4----|--5----------------|
-------------------|----------------------|--8----------------|


  W                   W                   Q    Q    Q    Q
-------------------|-------------------|----------------------|
-------------------|-------------------|----------------------|
-------------------|-------------------|----------------------|
-------------------|--3----------------|--L----2----3----2----|
--4----------------|--5----------------|--L----4----5----4----|
--7----------------|-------------------|----------------------|


  |--3--|  |--3--|  |--3--|  |--3--|     |--3--|  |--3--|  |--3--|  |--3--|
  E  E  E  E  E  E  E  E  E  E  E  E     E  E  E  E  E  E  E  E  E  E  E  E
--------------------------------------|--------------------------------------|
--------------------------------------|--------------------------------------|
--------------------------------------|--------------------------------------|
--------------------------------------|--------------------------------------|
--------------------------------------|--------------------------------------|
--0--0--0--0--------0--0--0--0--------|-----------0--0--0--0-----------------|


  |--3--|  |--3--|  |--3--|  |--3--|     |--3--|  |--3--|  |--3--|  |--3--|
  E  E  E  E  E  E  E  E  E  E  E  E     E  E  E  E  E  E  E  E  E  E  E  E
--------------------------------------|--------------------------------------|
--------------------------------------|--------------------------------------|
--------------------------------------|--------------------------------------|
--------------------------------------|--------------------------------------|
--------------------------------------|--------------------------------------|
--0--0--0--0--------0--0--0--0--------|-----------0--0--0--0-----------------|


  |--3--|  |--3--|  |--3--|  |--3--|     |--3--|  |--3--|  |--3--|  |--3--|
  E  E  E  E  E  E  E  E  E  E  E  E     E  E  E  E  E  E  E  E  E  E  E  E
--------------------------------------|--------------------------------------|
--------------------------------------|--------------------------------------|
--------------------------------------|--------------------------------------|
--------------------------------------|--------------------------------------|
--------------------------------------|--------------------------------------|
--0--0--0--0--------0--0--0--0--------|-----------0--0--0--0-----------------|


  W                   W
-------------------|-------------------|
-------------------|-------------------|
-------------------|-------------------|
-------------------|-------------------|
--0----------------|-------------------|
--0----------------|-------------------|


  |---3--|  |---3--|   |---3--|  |---3--|
  E  E   E  E   E  E   E  E   E  E   E  E
-------------------------------------------|
-------------------------------------------|
-------------------------------------------|
----------------------11--8------8---------|
------------7--10--7---------10-----10--7--|
--0--8--11---------------------------------|


  |---3--|  |---3--|   |---3--|  |---3--|
  E  E   E  E   E  E   E  E   E  E   E  E
-------------------------------------------|
-------------------------------------------|
-------------------------------------------|
----------------------11--8------8---------|
------------7--10--7---------10-----10--7--|
--0--8--11---------------------------------|


  |---3--|  |---3--|   |---3--|  |---3--|
  E  E   E  E   E  E   E  E   E  E   E  E
-------------------------------------------|
-------------------------------------------|
-------------------------------------------|
----------------------11--8------8---------|
------------7--10--7---------10-----10--7--|
--0--8--11---------------------------------|


   |---3--|  |---3--|  |--3--|  |--3--|
   E  E   E  E   E  E  E  E  E  E  E  E
-----------------------------------------|
-----------------------------------------|
-----------------------------------------|
--11--8------8---------------------------|
---------10-----10--7-----------4--7--4--|
-----------------------0--5--8-----------|


  |---3--|  |---3--|   |---3--|  |---3--|
  E  E   E  E   E  E   E  E   E  E   E  E
-------------------------------------------|
-------------------------------------------|
-------------------------------------------|
----------------------11--8------8---------|
------------7--10--7---------10-----10--7--|
--0--8--11---------------------------------|


  |---3--|  |---3--|   |---3--|  |---3--|
  E  E   E  E   E  E   E  E   E  E   E  E
-------------------------------------------|
-------------------------------------------|
-------------------------------------------|
----------------------11--8------8---------|
------------7--10--7---------10-----10--7--|
--0--8--11---------------------------------|


  |---3--|  |---3--|   |---3--|  |---3--|
  E  E   E  E   E  E   E  E   E  E   E  E
-------------------------------------------|
-------------------------------------------|
-------------------------------------------|
----------------------11--8------8---------|
------------7--10--7---------10-----10--7--|
--0--8--11---------------------------------|


   |---3--|  |---3--|  |--3--|  |--3--|
   E  E   E  E   E  E  E  E  E  E  E  E
-----------------------------------------|
-----------------------------------------|
-----------------------------------------|
--11--8------8---------------------------|
---------10-----10--7-----------4--7--4--|
-----------------------0--5--8-----------|


  |--3--|  |--3--|  |-3-| |-3-| |-3-| |-3-|
  E  E  E  E  E  E  S S S S S S S S S S S S
--------------------------------------------|
--------------------------------------------|
--------------------------------------------|
--------------------------------------------|
--------------------------------------------|
--0--0--0--0--0--0--0-0-0-0-0-0-0-0-0-0-0-0-|


  |---3--|  |---3--|   |---3--|  |---3--|
  E  E   E  E   E  E   E  E   E  E   E  E
-------------------------------------------|
-------------------------------------------|
-------------------------------------------|
----------------------11--8------8---------|
------------7--10--7---------10-----10--7--|
--0--8--11---------------------------------|


  |--3--|  |--3--|  |-3-| |-3-| |-3-| |-3-|
  E  E  E  E  E  E  S S S S S S S S S S S S
--------------------------------------------|
--------------------------------------------|
--------------------------------------------|
--------------------------------------------|
--------------------------------------------|
--0--0--0--0--0--0--0-0-0-0-0-0-0-0-0-0-0-0-|


   |---3--|  |---3--|  |--3--|  |--3--|
   E  E   E  E   E  E  E  E  E  E  E  E
-----------------------------------------|
-----------------------------------------|
-----------------------------------------|
--11--8------8---------------------------|
---------10-----10--7-----------4--7--4--|
-----------------------0--5--8-----------|


  |--3--|  |--3--|  |-3-| |-3-| |-3-| |-3-|
  E  E  E  E  E  E  S S S S S S S S S S S S
--------------------------------------------|
--------------------------------------------|
--------------------------------------------|
--------------------------------------------|
--------------------------------------------|
--0--0--0--0--0--0--0-0-0-0-0-0-0-0-0-0-0-0-|


  |---3--|  |---3--|   |---3--|  |---3--|
  E  E   E  E   E  E   E  E   E  E   E  E
-------------------------------------------|
-------------------------------------------|
-------------------------------------------|
----------------------11--8------8---------|
------------7--10--7---------10-----10--7--|
--0--8--11---------------------------------|


  |--3--|  |--3--|  |-3-| |-3-| |-3-| |-3-|
  E  E  E  E  E  E  S S S S S S S S S S S S
--------------------------------------------|
--------------------------------------------|
--------------------------------------------|
--------------------------------------------|
--------------------------------------------|
--0--0--0--0--0--0--0-0-0-0-0-0-0-0-0-0-0-0-|


   |---3--|  |---3--|  |--3--|  |--3--|
   E  E   E  E   E  E  E  E  E  E  E  E
-----------------------------------------|
-----------------------------------------|
-----------------------------------------|
--11--8------8---------------------------|
---------10-----10--7-----------4--7--4--|
-----------------------0--5--8-----------|


   |---3--|  |---3--|   |---3--|  |---3--|
   E  E   E  E   E  E   E  E   E  E   E  E
--------------------------------------------|
--------------------------------------------|
--------------------------------------------|
--11--8------8---------11--8------8---------|
---------10-----10--7---------10-----10--7--|
--------------------------------------------|


   |---3--|  |---3--|   |---3--|   |----3----|
   E  E   E  E   E  E   E  E   E   E    E    E
------------------------------------------------|
------------------------------------------------|
------------------------------------------------|
--11--8------8---------11--8------11s--14s--11--|
---------10-----10--7---------10----------------|
------------------------------------------------|


   |---3--|  |---3--|   |---3--|  |---3--|
   E  E   E  E   E  E   E  E   E  E   E  E
--------------------------------------------|
--------------------------------------------|
--------------------------------------------|
--11--8------8---------11--8------8---------|
---------10-----10--7---------10-----10--7--|
--------------------------------------------|


   |---3--|  |---3--|   |---3--|   |----3----|
   E  E   E  E   E  E   E  E   E   E    E    E
------------------------------------------------|
------------------------------------------------|
------------------------------------------------|
--11--8------8---------11--8------11s--14s--11--|
---------10-----10--7---------10----------------|
------------------------------------------------|


   |---3--|  |---3--|   |---3--|  |---3--|
   E  E   E  E   E  E   E  E   E  E   E  E
--------------------------------------------|
--------------------------------------------|
--------------------------------------------|
--11--8------8---------11--8------8---------|
---------10-----10--7---------10-----10--7--|
--------------------------------------------|


   |---3--|  |---3--|   |---3--|   |----3----|
   E  E   E  E   E  E   E  E   E   E    E    E
------------------------------------------------|
------------------------------------------------|
------------------------------------------------|
--11--8------8---------11--8------11s--14s--11--|
---------10-----10--7---------10----------------|
------------------------------------------------|


   |---3--|  |---3--|   |---3--|  |---3--|
   E  E   E  E   E  E   E  E   E  E   E  E
--------------------------------------------|
--------------------------------------------|
--------------------------------------------|
--11--8------8---------11--8------8---------|
---------10-----10--7---------10-----10--7--|
--------------------------------------------|


   |---3--|  |---3--|   |---3--|   |----3----|
   E  E   E  E   E  E   E  E   E   E    E    E
------------------------------------------------|
------------------------------------------------|
------------------------------------------------|
--11--8------8---------11--8------11s--14s--11--|
---------10-----10--7---------10----------------|
------------------------------------------------|


  |-3-| |-3-| |-3-| |-3-| |-3-| |-3-| |-3-| |-3-|
  S S S S S S S S S S S S S S S S S S S S S S S S
--------------------------------------------------|
--------------------------------------------------|
--------------------------------------------------|
--------------------------------------------------|
--------------------------------------------------|
--0-0-0-0-0-0-0-----------0-0-0-0-0-0-0-----------|


  |--3--|  |-3-| |-3-| |-3-| |-3-| |--3--|
  E  E  E  S S S S S S S S S S S S E  E  E
--------------------------------------------|
--------------------------------------------|
--------------------------------------------|
--------------------------------------------|
--------------------------------------------|
-----------0-0-0-0-0-0-0--------------------|


  |-3-| |-3-| |-3-| |-3-| |-3-| |-3-| |-3-| |-3-|
  S S S S S S S S S S S S S S S S S S S S S S S S
--------------------------------------------------|
--------------------------------------------------|
--------------------------------------------------|
--------------------------------------------------|
--------------------------------------------------|
--0-0-0-0-0-0-0-----------0-0-0-0-0-0-0-----------|


  |--3--|  |-3-| |-3-| |-3-| |-3-| |--3--|
  E  E  E  S S S S S S S S S S S S E  E  E
--------------------------------------------|
--------------------------------------------|
--------------------------------------------|
--------------------------------------------|
--------------------------------------------|
-----------0-0-0-0-0-0-0--------------------|


  |-3-| |-3-| |-3-| |-3-| |-3-| |-3-| |-3-| |-3-|
  S S S S S S S S S S S S S S S S S S S S S S S S
--------------------------------------------------|
--------------------------------------------------|
--------------------------------------------------|
--------------------------------------------------|
--------------------------------------------------|
--0-0-0-0-0-0-0-----------0-0-0-0-0-0-0-----------|


  |--3--|  |-3-| |-3-| |-3-| |-3-| |--3--|
  E  E  E  S S S S S S S S S S S S E  E  E
--------------------------------------------|
--------------------------------------------|
--------------------------------------------|
--------------------------------------------|
--------------------------------------------|
-----------0-0-0-0-0-0-0--------------------|


  |-3-| |-3-| |-3-| |-3-| |-3-| |-3-| |-3-| |-3-|
  S S S S S S S S S S S S S S S S S S S S S S S S
--------------------------------------------------|
--------------------------------------------------|
--------------------------------------------------|
--------------------------------------------------|
--------------------------------------------------|
--0-0-0-0-0-0-0-----------0-0-0-0-0-0-0-----------|


  |--3--|  |-3-| |-3-| |-3-| |-3-| |--3--|
  E  E  E  S S S S S S S S S S S S E  E  E
--------------------------------------------|
--------------------------------------------|
--------------------------------------------|
--------------------------------------------|
--------------------------------------------|
-----------0-0-0-0-0-0-0--------------------|


  |---3--|  |--3--|  |---3--|  |--3--|
  E  E   E  E  E  E  E  E   E  E  E  E
----------------------------------------|
----------------------------------------|
----------------------------------------|
----------------------------------------|
------------7------------------7--------|
--0--8--11-----------0--8--11-----------|


  |---3--|  |--3--|   |---3--|  |---3--|
  E  E   E  E  E  E   E  E   E  E   E  E
------------------------------------------|
------------------------------------------|
------------------------------------------|
---------------------11--8------8---------|
------------7---------------10-----10--7--|
--0--8--11--------------------------------|


  |---3--|  |--3--|  |---3--|  |--3--|
  E  E   E  E  E  E  E  E   E  E  E  E
----------------------------------------|
----------------------------------------|
----------------------------------------|
----------------------------------------|
------------7------------------7--------|
--0--8--11-----------0--8--11-----------|


   |---3--|  |---3--|  |--3--|  |--3--|
   E  E   E  E   E  E  E  E  E  E  E  E
-----------------------------------------|
-----------------------------------------|
-----------------------------------------|
--11--8------8---------------------------|
---------10-----10--7-----------4--7--4--|
-----------------------0--5--8-----------|


  |---3--|  |--3--|  |---3--|  |--3--|
  E  E   E  E  E  E  E  E   E  E  E  E
----------------------------------------|
----------------------------------------|
----------------------------------------|
----------------------------------------|
------------7------------------7--------|
--0--8--11-----------0--8--11-----------|


  |---3--|  |--3--|   |---3--|  |---3--|
  E  E   E  E  E  E   E  E   E  E   E  E
------------------------------------------|
------------------------------------------|
------------------------------------------|
---------------------11--8------8---------|
------------7---------------10-----10--7--|
--0--8--11--------------------------------|


  |---3--|  |--3--|  |---3--|  |--3--|
  E  E   E  E  E  E  E  E   E  E  E  E
----------------------------------------|
----------------------------------------|
----------------------------------------|
----------------------------------------|
------------7------------------7--------|
--0--8--11-----------0--8--11-----------|


   |---3--|  |---3--|  |--3--|  |--3--|
   E  E   E  E   E  E  E  E  E  E  E  E
-----------------------------------------|
-----------------------------------------|
-----------------------------------------|
--11--8------8---------------------------|
---------10-----10--7-----------4--7--4--|
-----------------------0--5--8-----------|


  |---3--|  |--3--|  |---3--|  |--3--|
  E  E   E  E  E  E  E  E   E  E  E  E
----------------------------------------|
----------------------------------------|
----------------------------------------|
----------------------------------------|
------------7------------------7--------|
--0--8--11-----------0--8--11-----------|


  |---3--|  |--3--|   |---3--|  |---3--|
  E  E   E  E  E  E   E  E   E  E   E  E
------------------------------------------|
------------------------------------------|
------------------------------------------|
---------------------11--8------8---------|
------------7---------------10-----10--7--|
--0--8--11--------------------------------|


  |---3--|  |--3--|  |---3--|  |--3--|
  E  E   E  E  E  E  E  E   E  E  E  E
----------------------------------------|
----------------------------------------|
----------------------------------------|
----------------------------------------|
------------7------------------7--------|
--0--8--11-----------0--8--11-----------|


   |---3--|  |---3--|  |--3--|  |--3--|
   E  E   E  E   E  E  E  E  E  E  E  E
-----------------------------------------|
-----------------------------------------|
-----------------------------------------|
--11--8------8---------------------------|
---------10-----10--7-----------4--7--4--|
-----------------------0--5--8-----------|


  |---3--|  |--3--|  |---3--|  |--3--|
  E  E   E  E  E  E  E  E   E  E  E  E
----------------------------------------|
----------------------------------------|
----------------------------------------|
----------------------------------------|
------------7------------------7--------|
--0--8--11-----------0--8--11-----------|


  |---3--|  |--3--|   |---3--|  |---3--|
  E  E   E  E  E  E   E  E   E  E   E  E
------------------------------------------|
------------------------------------------|
------------------------------------------|
---------------------11--8------8---------|
------------7---------------10-----10--7--|
--0--8--11--------------------------------|


  |---3--|  |--3--|  |---3--|  |--3--|
  E  E   E  E  E  E  E  E   E  E  E  E
----------------------------------------|
----------------------------------------|
----------------------------------------|
----------------------------------------|
------------7------------------7--------|
--0--8--11-----------0--8--11-----------|


   |---3--|  |---3--|  |--3--|  |--3--|
   E  E   E  E   E  E  E  E  E  E  E  E     W.               H
-----------------------------------------|----------------------------|
-----------------------------------------|----------------------------|
-----------------------------------------|----------------------------|
--11--8------8---------------------------|----------------------------|
---------10-----10--7-----------4--7--4--|--0----------------L--------|
-----------------------0--5--8-----------|--0----------------L--------|


  W.               H           W.               H.
----------------------------|--------------------------------|
----------------------------|--------------------------------|
----------------------------|--------------------------------|
----------------------------|--------------------------------|
--0----------------L--------|--0----------------L------------|
--0----------------L--------|--0----------------L------------|


  W.               Q    Q    Q
----------------------------------|
----------------------------------|
----------------------------------|
----------------------------------|
--L----------------L--------------|
--L----------------L--------------|


  E  S E  E  S E  E  S E  E  E  S E  S E  E  S E  E  S E  S
------------------------------------------------------------|
------------------------------------------------------------|
------------------------------------------------------------|
------------------------------------------------------------|
--0----0-----0-0--0----0-----0----0----0-----0-0--0----0----|
--1----1-----1-1--1----1-----1----1----1-----1-1--1----1----|


  E  S E  E  S E  E  S E  E  E  S E  S E  E  S E  E  S E  S
------------------------------------------------------------|
------------------------------------------------------------|
------------------------------------------------------------|
------------------------------------------------------------|
--0----0-----0-0--0----0-----0----0----0-----0-0--0----0----|
--1----1-----1-1--1----1-----1----1----1-----1-1--1----1----|


  E  S E  E  S E  E  S E  E  E  S E  S E  E  S E  E  S E  S
------------------------------------------------------------|
------------------------------------------------------------|
------------------------------------------------------------|
------------------------------------------------------------|
--0----0-----0-0--0----0-----0----0----0-----0-0--0----0----|
--1----1-----1-1--1----1-----1----1----1-----1-1--1----1----|


  E  S E  E  S E  E  S E  E  E  S E  S E  E  S E  E  S E  S
------------------------------------------------------------|
------------------------------------------------------------|
------------------------------------------------------------|
------------------------------------------------------------|
--0----0-----0-0--0----0-----0----0----0-----0-0--0----0----|
--1----1-----1-1--1----1-----1----1----1-----1-1--1----1----|


  E.  Q    S E  E.  E  E  E.  E.  E  E  S E  E.  E.
-----------------------------------------------------|
-----------------------------------------------------|
-----------------------------------------------------|
------4---------7----------------------------4-------|
--------------------------5--------------------------|
--1--------0-0------4---------4---0-----1-1------1---|


  E.  Q    S E  E.  E  E  E.  E.  E  E  S E  E.  E.
-----------------------------------------------------|
-----------------------------------------------------|
-----------------------------------------------------|
------4---------7----------------------------4-------|
--------------------------5--------------------------|
--1--------0-0------4---------4---0-----1-1------1---|


  E.  Q    S E  E.  E  E  E.  E.  E  E  S E  E.  E.
-----------------------------------------------------|
-----------------------------------------------------|
-----------------------------------------------------|
------4---------7----------------------------4-------|
--------------------------5--------------------------|
--1--------0-0------4---------4---0-----1-1------1---|


  E.  Q    S E  E.  E  E  E  E  S E     W                H
-------------------------------------|----------------------------|
-------------------------------------|----------------------------|
-------------------------------------|----------------------------|
------4---------7---------4-------4--|----------------------------|
-------------------------------------|----------------------------|
--1--------0-0------4--1-----1--1----|----------------------------|


  E  S E  E  S E  E  S E  E  E  S E  S E  E  S E  E  S E  S
------------------------------------------------------------|
------------------------------------------------------------|
------------------------------------------------------------|
------------------------------------------------------------|
--0----0-----0-0--0----0-----0----0----0-----0-0--0----0----|
--1----1-----1-1--1----1-----1----1----1-----1-1--1----1----|


  E  S E  E  S E  E  S E  E  E  S E  S E  E  S E  E  S E  S
------------------------------------------------------------|
------------------------------------------------------------|
------------------------------------------------------------|
------------------------------------------------------------|
--0----0-----0-0--0----0-----0----0----0-----0-0--0----0----|
--1----1-----1-1--1----1-----1----1----1-----1-1--1----1----|


  T T T S. T T T E  T T T T S T T T T S T T T T E.  T T T S. T T T S. T T T E  T
--------------------------------------------------------------------------------|
--------------------------------------------------------------------------------|
--------------------------------------------------------------------------------|
--------------------------------------------------------------------------------|
--0-0-0----0-0-0------0-0-0-----0-0-0-----0-0-0-----0-0-0----0-0-0----0-0-0-----|
--1-1-1----1-1-1------1-1-1-----1-1-1-----1-1-1-----1-1-1----1-1-1----1-1-1-----|


  T T T S. T T T E  T T T T S T T T T S T T T T E.  T T T S. T T T S. T T T E  T
--------------------------------------------------------------------------------|
--------------------------------------------------------------------------------|
--------------------------------------------------------------------------------|
--------------------------------------------------------------------------------|
--0-0-0----0-0-0------0-0-0-----0-0-0-----0-0-0-----0-0-0----0-0-0----0-0-0-----|
--1-1-1----1-1-1------1-1-1-----1-1-1-----1-1-1-----1-1-1----1-1-1----1-1-1-----|


  T T T S. T T T E  T T T T S T T T T S T T T T E.  T T T S. T T T S. T T T E  T
--------------------------------------------------------------------------------|
--------------------------------------------------------------------------------|
--------------------------------------------------------------------------------|
--------------------------------------------------------------------------------|
--0-0-0----0-0-0------0-0-0-----0-0-0-----0-0-0-----0-0-0----0-0-0----0-0-0-----|
--1-1-1----1-1-1------1-1-1-----1-1-1-----1-1-1-----1-1-1----1-1-1----1-1-1-----|


  T T T S. T T T E  T T T T S T T T T S T T T T E.  T T T S. T T T S. T T T E  T
--------------------------------------------------------------------------------|
--------------------------------------------------------------------------------|
--------------------------------------------------------------------------------|
--------------------------------------------------------------------------------|
--0-0-0----0-0-0------0-0-0-----0-0-0-----0-0-0-----0-0-0----0-0-0----0-0-0-----|
--1-1-1----1-1-1------1-1-1-----1-1-1-----1-1-1-----1-1-1----1-1-1----1-1-1-----|

Duration Legend
---------------
W - whole
H - half
Q - quarter
E - 8th
S - 16th
T - 32nd
X - 64th
. - note dotted
|-n-|  - n-tuplets


Tablature Legend
----------------
L - tied note
x - dead note
g - grace note
(n) - ghost note
> - accentuded note
NH - natural harmonic
AH - artificial harmonic
TH - tapped harmonic
SH - semi harmonic
PH - pitch harmonic
h - hammer on
p - pull off
b - bend
br - bendRelease
pb - preBend
pbr - preBendRelease
brb - bendReleaseBend
\n/ - tremolo bar dip
\n - tremolo bar dive
-/n - tremolo bar Release up
/n\ - tremolo bar inverted dip
/n - tremolo bar return
-\n - tremolo bar Release down
S - shift slide
s - legato slide
/ -  slide into from below or out of upwards
\ -  slide into from above or out of downwards
~ - vibrato
W - wide vibrato
tr - trill
TP - tremolo picking
T - tapping
S - slap
P - pop
< - fade in
^ - brush up
v - brush down

            
            
Suggest correction
Creating personal tab
Creating personal tab
You can edit any tab online and save it as your Personal.

You can edit, replace or remove any tab part or add personal notes – all changes will be seen only by you.

Personal tabs can be accessed anytime from any device, even offline.
Learn more »
Give kudos to tab author, rate the tab!
1 2 3 4 5
comments
print report bad tab
guest
You may want to rate the tab now too:
select rating
Wanna post a correction for this tab? Suggest correction