Oops, an error
Loading. Please wait.

Maltreatment tab

126 views 1 this week
no commentswrite comment
1 2 3 4 5
3 more votes to show rating
add to favorites
×
Save as Personal and add changes to this tab that will be seen only by you. Learn more ›
×
You can save this tab as Personal to edit and correct it or add notes. All changes will be seen only by you. Learn more »
launch autoscroll
font size
0
reset
how to read this tab
guitar tuner
edit
Autoscroll
slow
fast
+/-
esc
set tempo
stop
Played in Drop A


(0:00-0:18)
|-----------------------------------------------------------------|
|-----------------------------------------------------------------|
|-----------------------------------------------------------------|
|-----------------------------------------------------------------|
|------333-----------------------------333------------------------|
|--222-----555-333-222-666-555-333-222-----555-333-6666-5555------|
   ... ... ... ... ... ... ... ... ... ... ... ... 

|-----------------------------------------------------------------|
|-----------------------------------------------------------------|
|-----------------------------------------------------------------|
|-----------------------------------------------------------------|x2
|------333-----------------------------333---------3~---2~--------|
|--222-----555-333-222-666-555-333-222-----555-333-6~---5~--------|
   ... ... ... ... ... ... ... ... ... ... ... ...



|-----------------------------------------------------------------|
|-----------------------------------------------------------------|
|-----------------------------------------------------------------|
|-----------------------------------------------------------------|
|------333-----------------------------333---------3333-2222------|
|--222-----555-333-222-666-555-333-222-----555-333----------------|
   ... ... ... ... ... ... ... ... ... ... ... ... 

|-----------------------------------------------------------------|
|-----------------------------------------------------------------|
|-----------------------------------------------------------------|
|-----------------------------------------------------------------|x2
|------333-----------------------------333---------3~---2~--------|
|--222-----555-333-222-666-555-333-222-----555-333-6~---5~--------|
   ... ... ... ... ... ... ... ... ... ... ... ...


(0:18-0:29)
|-----------------------------------------------------|
|-----------------------------------------------------|
|-----------------------------------------------------|
|-----------------------------------------------------|
|--------2----5------------------2----5---------------|
|--5-3-2--2-2--2-2-2-5-3-2-5-3-2--2-2--2-2-2-5-3-2----|
   . . .  . .  . . . . . . . . .  . .  . . . . . .

|-----------------------------------------------------|
|-----------------------------------------------------|
|-----------------------------------------------------|
|-----------------------------------------------------|x2
|--------3----6------------------3----6---------------|
|--6-5-3--3-3--3-3-3-6-5-3-6-5-3--3-3--3-3-3-6-5-3----|
   . . .  . .  . . . . . . . . .  . .  . . . . . . 

(0:29-0:32)
|-----------------------------------------------|
|-----------------------------------------------|
|-----------------------------4-----------------|
|------------------------3-----6-3--3-----------|
|-------2~------3~--------5-2--------5-2--------|
|--5-3-2---6-5-3---5-3-2------------------------|
   . . .   . . .   . . .

(0:32-0:33)
|------------------|
|------------------|
|------------------|
|------------------|
|-----333----------|
|--222---555-333---|


(0:34-0:50)
|-----------------------------------------------------------------|
|-----------------------------------------------------------------|
|-----------------------------------------------------------------|
|-----------------------------------------------------------------|
|------333-----------------------------333------------------------|
|--222-----555-333-----666-555-333-222-----555-----6666-5555------| 
   ... ... ... ...     ... ... ... ... ... ...  

|-----------------------------------------------------------------|
|-----------------------------------------------------------------|
|-----------------------------------------------------------------|
|-----------------------------------------------------------------|x2
|------333-----------------------------333---------3~---2~--------|
|--222-----555-333-----666-555-333-222-----555-----6~---5~--------|
   ... ... ... ...     ... ... ... ... ... ...

(0:50-0:53)
|-------------------------|
|-------------------------|
|-------------------------|
|--000-3-2-0-3-2-032------|
|--000-3-2-0-3-2-032-2*---|
|--000-3-2-0-3-2-032------|
   ... . . . . . ...

(0:54-1:05)
|------------------------------------------------------|
|------------------------------------------------------|
|------------------------------------------------------|
|--000-------000-0-0032----000-------000-0-000000------|x2
|--000-------000-0-0032-2*-000-------000-0-000000------|
|--000-1~-1~-000-0-0032----000-1~-1~-000-0-000000------|
   ...       ... . ....    ...       ... . ......

(1:05-1:14)
|--------------------------------------------|
|--------------------------------------------|
|--------------------------------------------|
|--0000-00-00--0000000-00-00-00-00000--4-----|x2
|--0000-00-00--0000000-00-00-00-00000--------|
|--0000-00-00--0000000-00-00-00-00000-1------|
   .... .. ..  ....... .. .. .. .....

(1:14-1:25)
|------------------------------------------------------------|
|------------------------------------------------------------|
|------------------------------------------------------------|
|--------4--------4---------3-------4--------4----3--1-------|
|----------------------------------------------------0-------|
|--0000-1---0000-1---00-00-0--0000-1---0000-1--000-0-1-------|
   ....     ....     .. .. .  ....     ....    ... . .

|------------------------------------------------------------|
|------------------------------------------------------------|
|------------------------------------------------------------|
|--------4--------4---------3-------4--------4----3--1-1-----|
|----------------------------------------------------0-0-----|
|--0000-1---0000-1---00-00-0--0000-1---0000-1--000-0-1-1-----|
   ....     ....     .. .. .  ....     ....    ... . . .

(1:26-1:39)
|------------------------------------------------------------|
|------------------------------------------------------------|
|------------------------------------------------------------|
|--------4--------4---------3-------4--------4----3--1-------|x2
|----------------------------------------------------0-------|
|--0000-1---0000-1---00-00-0--0000-1---0000-1--000-0-1-------| 
   ....     ....     .. .. .  ....     ....    ... . .


(1:39-1:53)
|----------------------------------------------------------------|
|---------------------------------------------------8----8-------|
|----------------------------------------------------9-6--9-6----|
|--2----5----8-----11---11------8-----11------8------------------|
|---4-1--7-4--10-7--------13-10--10-7---13-10--10-7--------------|
|----------------------------------------------------------------|
    . .  . .   . .        .  .   . .    .  .    . .  . .  . .

|-------------------------------------------------------------|
|-----------------------------------8----8----11-----14-------|
|------------------------------------9-6--9-6---12-9----------|
|-----11------8-------11------8-------------------------------|x2
|-------13-10--10-7-----13-10--10-7---------------------------|
|-------------------------------------------------------------|
        .  .   .  .     .  .    . .  . .  . .   .  .


(1:53-1:55)
|------------------------------|
|------------------------------|
|--12-9----------9-6-----------|
|------11-11-8------8-8-5------|
|-------------10---------7-----|
|------------------------------|
 


(1:56-2:06)
|----------------------------------------------------|
|----------------------------------------------------|
|----------------------------------------------------|
|----------------------------------------------------|x2
|-------3--------3-------3-------2---------2------2--|
|--6-5-3----6-5-3---6-5-3---5-3-2-----5-3-2--5-3-2---|
   . . .    . . .   . . .   . . .     . . .  . . . 

|-------------------|
|-------------------|
|--13---10-9--------|
|--x----x--x--------|
|--11---8--7--------|
|-------------------|


(2:07-2:29)
|---------------------------------------------------------------------------|
|---------------------------------------------------------------------------|
|---------------------------------------------------------------------------|
|----------------------2222--2222-0000--------------------2222--2222-0-0-0--|
|--3333~--33333~-3333~-2222--2222-0000-3333~--3333~-3333~-2222--2222-0-0-0--|
|--6666~--66666~-6666~-2222--2222-0000-6666~--6666~-6666~-2222--2222-0-0-0--|
   ...    ....   ...   ....  .... .... ...    ...   ...   ....  .... . . . 

(2:30-2:34)
|------------------|
|------------------|
|------------------|
|--000--000-0-0-0--|
|--000--000-0-0-0--|
|--000--000-0-0-0--|
   ...  ... . . . 

(2:35-2:49)
|-------------------------------------------------|
|-------------------------------------------------|
|-------------------------------------6-9---------|
|-------2-5----------------2-5-----5-8---5-8------|
|----1-4----------------1-4-----4-7---------------|
|--00------00-6-3-5-2-00------00------------------|
   ... .. ...         ... .. .... .. .. .. .

|--------------------------------4-7-4--7-10-7-------|
|-------------------------------------6-------9------|
|--------------------------------------7-------10----|
|-------2-5----------------2-5-----------------------|x2
|----1-4----------------1-4--------------------------|
|--00------00-6-3-5-2-00------00---------------------|
   ... .. ...         ... .. ... 

(2:50-3:04)
|---------------------------------------------------|
|---------------------------------------------------|
|---------------------------------------------------|
|--6-3-333653----3-222-222-6-3-333653----3-2-2-2----|x2
|--6-3-333653-3--3-222-222-6-3-333653-5--3-2-2-2----|
|--6-3-333653--5-3-222-222-6-3-333653--6-3-2-2-2----|
   . . ......  . . ... ... . . ......  . . . . . 

(3:06-3:54)
|--------------------------------|
|--------------------------------|
|--------------------------------|
|--000-000-0-0-0-000-000-1-1-1---|x6
|--000-000-0-0-0-000-000-0-0-0---|
|--000-000-0-0-0-000-000-1-1-1---|
   ... ... . . . ... ... . . . 

All tabs will be up-dated soon with all leads.

            
            
Suggest correction
Creating personal tab
Creating personal tab
You can edit any tab online and save it as your Personal.

You can edit, replace or remove any tab part or add personal notes – all changes will be seen only by you.

Personal tabs can be accessed anytime from any device, even offline.
Learn more »
Give kudos to tab author, rate the tab!
1 2 3 4 5
comments
print report bad tab
guest
You may want to rate the tab now too:
select rating
Wanna post a correction for this tab? Suggest correction