Oops, an error
Loading. Please wait.

Mercy Mercy Me bass

version 1
version 1

Whole song

Interactive

7,928 views 15 this week
no commentswrite comment
1 2 3 4 5
x 6
add to favorites
×
Save as Personal and add changes to this tab that will be seen only by you. Learn more ›
×
You can save this tab as Personal to edit and correct it or add notes. All changes will be seen only by you. Learn more »
launch autoscroll
font size
0
reset
guitar tuner
edit
Autoscroll
slow
fast
+/-
esc
set tempo
stop
Author
Difficulty
Mercy Mercy Me
Written by Marvin Gaye
Original Artist: Marvin Gaye
Released June 1971 from the Album Whats Going On
Original Bassist: Bob Babbitt
Tabbed by bass50611
This is a beautiful song that just goes round and round
I didn't bother with the last bit that doesn't really
do anything. if gigged then you would just finish on the 'F'
Any comments please e-mail me at goldenoldie.benson@sky.com

Intro:
G-----------------------------------------------------------|
D-----------------------------------------------------------|
A-----------------------------------------------------------|
E---6-6-66666-6---6-6-66666-6---7-7-77777-7---7-7-77777-7---|

Verse:
G---------9-9------------9-9------------6-6------------6-6-----|
D--------9---9----------9---9----------6---6----------6---6----|
A---7---7-----7----7---7------7----4--4-----4----4---4-----4---|
E--------------------------------------------------------------|

G---------------------------------------4-4------------4-4-----|
D---------4-4------------4-4-----------4---4----------4---4----|
A--------4---4----------4---4-----2---2-----2----2---2-----2---|
E---2---2-----2----2---2-----2---------------------------------|

Instrumental:
G----------10-10------------10-10--------------7-7-----------7-7-----|
D--------10-----10--------10-----10-----------7---7---------7---7----|
A---8---8---------8---8---8---------8---5---5------5---5---5-----5---|
E--------------------------------------------------------------------|

G---------------------------------------5-5------------5-3-----|
D---------5-5------------5-3-----------5---5----------5---5----|
A--------5---5----------5---5-----3---3-----3----3---3-----3---|
E---3---3-----3----3---3-----3---------------------------------|

Outro:		(play this x12 and finish on the F)
G------------------|
D------------------|
A---8---8-8888-8---|
E------------------|

            
            
Suggest correction
Creating personal tab
Creating personal tab
You can edit any tab online and save it as your Personal.

You can edit, replace or remove any tab part or add personal notes – all changes will be seen only by you.

Personal tabs can be accessed anytime from any device, even offline.
Learn more »
comments
print report bad tab
guest
You may want to rate the tab now too:
select rating
Wanna post a correction for this tab? Suggest correction