Oops, an error
Loading. Please wait.

He Thinks Hell Keep Her bass

version 1
version 1

Whole song

Interactive

92 views 3 this week
no commentswrite comment
1 2 3 4 5
3 more votes to show rating
add to favorites
×
Save as Personal and add changes to this tab that will be seen only by you. Learn more ›
×
You can save this tab as Personal to edit and correct it or add notes. All changes will be seen only by you. Learn more »
launch autoscroll
font size
0
reset
guitar tuner
edit
Autoscroll
slow
fast
+/-
esc
set tempo
stop
Author
Difficulty
He Thinks He’ll Keep Her
Track taken from Mary Chapin Carpenter’s 1992 album Come On, Come On
Tab by bass50611. More or less as original recording.
This how I played it on stage with my band.
Comments bass254@btinternet.com

Intro:
G|----------------------------------------------------|
D|----------------------------------------------------|
A|-------------------4-5-55--------------------4-5-55-|
E|-5-55---5-55-4-2-22--------5-55---5-55-4-2-22-------|

Verse:
G|---------------------------------------------------|
D|---------------------------------------------------|
A|-------------------4-5-55-------------------4-5-55-|
E|-5-55---5-55-4-2-22-------5-55---5-55-4-2-22-------|

G|------------------------------------------------------|
D|------------------------------------------------------|
A|--7-77---7-77-----------------------7-77---9--5--7-77-|
E|-7-------------7-77---7-77---0-00---------------------|

Repeat Verse:

Chorus 1:                                 (Play This x2)
G|----------------------------------------------------|
D|----------------------------------------------------|
A|------7-77---5-55---7-77------7-77---5-55-5--7-5-4--|
E|-5-55--------------------5-55---------------------2-|

Interlude:
G|--------------------------|
D|--------------------------|
A|-------------------4-5-55-|
E|-5-55---5-55-4-2-22-------|

Repeat Verse:

Chorus 2:
G|----------------------------------------------------|
D|----------------------------------------------------|
A|------7-77---5-55---7-77------7-77---5-55-5--7-5-4--|
E|-5-55--------------------5-55---------------------2-|

G|----------------------------------------------------|
D|----------------------------------------------------|
A|------7-77---9-99---7-77------7-77---5-55-5--7-5-4--|
E|-5-55--------------------5-55---------------------2-|

Repeat Intro:

Bridge:
   .       .      .
G|------------------------------------|
D|---------------------4--------------|
A|----------------7--------5---7-77-7-|
E|-0-------7--------------------------|

Chorus 3:
G|----------------------------------------------------|
D|----------------------------------------------------|
A|------7-77---5-55---7-77------7-77---5-55-5--7-5-4--|
E|-5-55--------------------5-55---------------------2-|

G|----------------------------------------------------|
D|----------------------------------------------------|
A|------7-77---5-55---7-77------7-77---9-99---7-5-4---|
E|-5-55--------------------5-55---------------------2-|

Repeat Intro:

Outro:
G|------------------------------------------------------------|
D|------------------------------------------------------------|
A|-------------------4-5-55--------------------4--55---77---0-|
E|-5-55---5-55-4-2-22--------5-55---5-55-4-2-22---------------|

            
            
Suggest correction
Creating personal tab
Creating personal tab
You can edit any tab online and save it as your Personal.

You can edit, replace or remove any tab part or add personal notes – all changes will be seen only by you.

Personal tabs can be accessed anytime from any device, even offline.
Learn more »
Give kudos to tab author, rate the tab!
1 2 3 4 5
comments
print report bad tab
guest
You may want to rate the tab now too:
select rating
Wanna post a correction for this tab? Suggest correction