Oops, an error
Loading. Please wait.

All Night Long bass

version 2
version 2

Whole song

  • Basic tab for the song, played throughout, listen to the song for the timing.
343 views 9 this week
1 commentread comment
1 2 3 4 5
1 last vote to show rating
add to favorites
×
Save as Personal and add changes to this tab that will be seen only by you. Learn more ›
×
You can save this tab as Personal to edit and correct it or add notes. All changes will be seen only by you. Learn more »
launch autoscroll
font size
0
reset
guitar tuner
edit
Autoscroll
slow
fast
+/-
esc
set tempo
stop
Author
Difficulty
About this tab version
Basic tab for the song, played throughout, listen to the song for the timing. Was this info helpful? Yes No
[Intro]

Drums only

[Riff 1] - 0:06

G|---------------------------------------------------------------------------|
D|-3-------3-------3---5---5--------3-------3-------3---5--------------------|
A|-----3-------3---------------6--------3-------3-----------1----------------|
E|---------------------------------------------------------------------------|


G|---------------------------------------------------------------------------|
D|-3-------3-------3---5---5--------3-------3-------3---5--------------------|
A|-----3-------3---------------6--------3-------3-----------1----------------|
E|---------------------------------------------------------------------------|

[Riff 2]

G|---------------------------------------------------------------------------|
D|-5-------5-------5---7---7--------5-------5-------5---7--------------------|
A|-----5-------5---------------8--------5-------5-----------5----------------|
E|---------------------------------------------------------------------------|

G|---------------------------------------------------------------------------|
D|-5-------5-------5---7---7--------5-------5-------5---7--------------------|
A|-----5-------5---------------8--------5-------5-----------5----------------|
E|---------------------------------------------------------------------------|

            
            
Suggest correction
Creating personal tab
Creating personal tab
You can edit any tab online and save it as your Personal.

You can edit, replace or remove any tab part or add personal notes – all changes will be seen only by you.

Personal tabs can be accessed anytime from any device, even offline.
Learn more »
Give kudos to tab author, rate the tab!
1 2 3 4 5
comments
print report bad tab
1 comment total.
0 reply
matthijssy1 10 Aug 15, 2017 06:22 AM, edited at 10:26 am

The notes are all correct but I think it's a half step down. But thanks for the tab anyway!

guest
You may want to rate the tab now too:
select rating
Wanna post a correction for this tab? Suggest correction