Oops, an error
Loading. Please wait.

My Friends tab

34 views 1 this week
no commentswrite comment
1 2 3 4 5
3 more votes to show rating
add to favorites
×
Save as Personal and add changes to this tab that will be seen only by you. Learn more ›
×
You can save this tab as Personal to edit and correct it or add notes. All changes will be seen only by you. Learn more »
launch autoscroll
font size
0
reset
how to read this tab
guitar tuner
edit
Autoscroll
slow
fast
+/-
esc
set tempo
stop
----------------------------------------------------------------------------
                                   MY FRIENDS
----------------------------------------------------------------------------


From the "Living Alone" EP
http://maryleighmusic.bandcamp.com

Tuning: E A D G B e

Chords used:
   
Aadd9   [X 0 7 6 0 0]
E       [0 2 2 1 0 0]
F       [(T)1 3 3 2 1 X]
G       [(T)3 5 5 2 3 X]
E/C     [0 3 2 2 X X]


[Intro]

0:00

e|---------------------------------------------------------------------------|
B|---------------------------------------------------------------------------|
G|---------------------------------------------------------------------------|
D|---------77--------5---------------77--------9-----------------------------|     X2
A|---------------------------------------------------------------------------|
E|----55--------88--------------55--------88---------------------------------|

          
[Verse]

0:17

e|---------------------------------------------------------------------------|
B|---------------------------------------------------------------------------|
G|---------------------------------------------------------------------------|
D|---------77-----------5------------77--------9-----------------------------|     
A|---------------------------------------------------------------------------|
E|----55--------88--------------55-------88----------------------------------|

                Summer sun,          doesn't   feel    the      same

e|--------------------------------------------------------------------------------|
B|---------------------------------------------------------------------------5----|
G|---------------------------------------------------------------------5-4--------|
D|---------77-----------5----------------------------77--------5------------------|     
A|--------------------------------------------------------------------------------|
E|----55--------88-----------------------------55---------88----------------------|

           Find myself    thinking I should've      stayed in that day 

        
[Chorus]

0:32

       G                           G         F                F     G
e|-----------------------------------------------------------------------|
B|-----3---------------------------3---------1----------------1/----3----|
G|-----4---------------------------4---------2----------------2/----4----|
D|-----5---------------------------5---------3----------------3/----5----|
A|-----5---------------------------5---------3----------------3/----5----|
E|--(T)3------------------------(T)3------(T)1-------------(T)1/-(T)3----|
          My friends all say they know me,  it's not true

                           G       F               F G
e|-----------------------------------------------------------------------|
B|-------------------------3-------1---------------1/3-------------------|
G|-------------------------4-------2---------------2/4-------------------|
D|-------------------------5-------3---------------3/5-------------------|
A|-------------------------5-------3---------------3/5-------------------|
E|-------------------------3-------1---------------1/3-------------------|
     They all say she's so lovely, it's not true

                          G        F               F G
e|-----------------------------------------------------------------------|
B|------------------------3--------1---------------1/3-------------------|
G|------------------------4--------2---------------2/4-------------------|
D|------------------------5--------3---------------3/5-------------------|
A|------------------------5--------3---------------3/5-------------------|
E|------------------------3--------1---------------1/3-------------------|
     My lovers think they know me, it's not true

                          G        F
e|--------------------------------------------------0--------------------|
B|------------------------3--------1-------------------1-----------------|
G|------------------------4--------2----------------------4--------------|
D|------------------------5--------3-------------------------------------|
A|------------------------5--------3-------------------------------------|
E|------------------------3--------1-------------------------------------|
     They say you love me so well, but I can't do


[Intro]

1:05

e|---------------------------------------------------------------------------|
B|---------------------------------------------------------------------------|
G|---------------------------------------------------------------------------|
D|---------77--------5---------------77--------9-----------------------------|     X2
A|---------------------------------------------------------------------------|
E|----55--------88--------------55--------88---------------------------------|


[Verse]

1:22

e|---------------------------------------------------------------------------|
B|---------------------------------------------------------------------------|
G|---------------------------------------------------------------------------|
D|---------77-----------5------------77--------9-----------------------------|     
A|---------------------------------------------------------------------------|
E|----55--------88--------------55-------88----------------------------------|
           Knock, knock, knock       doesn't sound the same

e|-------------------------------------------------------------------------------|
B|---------------------------------------------------------------------------5---|
G|---------------------------------------------------------------------5-4-------|
D|---------77-----------5----------------------------77--------5-----------------|     
A|-------------------------------------------------------------------------------|
E|----55--------88-----------------------------55---------88---------------------|
           Find myself thinking I should've          thrown the keys away 


[Chorus]

1:38
       G                           G             F             F    G
e|-----------------------------------------------------------------------|
B|-----3---------------------------3---------1-----------------1/---3----|
G|-----4---------------------------4---------2-----------------2/---4----|
D|-----5---------------------------5---------3-----------------3/---5----|
A|-----5---------------------------5---------3-----------------3/---5----|
E|--(T)3------------------------(T)3------(T)1--------------(T)1/(T)3----|
          My friends all say they know me,  it's not true

                           G       F               F G
e|-----------------------------------------------------------------------|
B|-------------------------3-------1---------------1/3-------------------|
G|-------------------------4-------2---------------2/4-------------------|
D|-------------------------5-------3---------------3/5-------------------|
A|-------------------------5-------3---------------3/5-------------------|
E|-------------------------3-------1---------------1/3-------------------|
     They all say she's so lovely, it's not true

                          G         F              F G
e|-----------------------------------------------------------------------|
B|------------------------3--------1---------------1/3-------------------|
G|------------------------4--------2---------------2/4-------------------|
D|------------------------5--------3---------------3/5-------------------|
A|------------------------5--------3---------------3/5-------------------|
E|------------------------3--------1---------------1/3-------------------|
     My lovers think they know me, it's not true

                          G        F
e|--------------------------------------------------0--------------------|
B|------------------------3--------1-------------------1-----------------|
G|------------------------4--------2----------------------4--------------|
D|------------------------5--------3-------------------------------------|
A|------------------------5--------3-------------------------------------|
E|------------------------3--------1-------------------------------------|
     They say you love me so well, but I can't do


[Bridge]

2:11

       E
e|-----0---------------------------------------------------------------|
B|-----0---------------------------------------------------------------|
G|-----1---------------------------------------------------------------|
D|-----2---------------------------------------------------------------|
A|-----2------222222/--------------------------------------------------|
E|-----0------000000/--------------------------------------------------|
    No I can't do


e|-------------------------------------------------------------|
B|-------------------------------------------------------------|
G|-------------------------------------------------------------|
D|---9---------13---------9--------9---------------------------|
A|--11---------14--------11-------11---------------------------|
E|---0----------0---------0--------00000000000000--------------|
     Now       all        I        am


e|---------------------------------------------------------------|
B|---------------------------------------------------------------|
G|---------------------------------------------------------------|
D|--9----------9-----------7--------6-----4-----------9----------|
A|-11---------11-----------9--------7-----5----------11----------|
E|--0----------0-----------0--------0-----0-----------000000-----|
    Is   the   backwards   memory   of a  backwards   man


e|---------------------------------------------------------------------------------|
B|---------------------------------------------------------------------------------|
G|---------------------------------------------------------------------------------|
D|-9-------------13-----9-------------------9-----7-----6-----4--------6-----------|
A|11-------------14----11------------------11-----9-----7-----5--------7-----------|
E|-0--------------0-----0000000000000-------0-----0-----0-----0--------000000000/--|
   Still    I     can't escape          You sully every ounce of love I make

                                   E
e|---------------------------------0-----------------------------------|
B|---------------------------------0-----------------------------------|
G|---------------------------------1-----------------------------------|
D|------9-----7-----6-------4------2-----------------------------------|
A|-----11-----9-----7-------5------2-----------------------------------|
E|------0-----0-----0-------0----0-0-----------------------------------|
    You sully every once of love I make


[Outro]

2:56

    E              Aadd9               E
e|--0----------------0-----------------0--------------------------------|
B|--0----------------0-----------------0--------------------------------|
G|--1----------------6-----------------1--------------------------------|
D|--2----------------7-----------------2------9-------------------------|
A|--2----------------0-----------------2----------11---9---11-----------|
E|--0----------------------------------0------------------------7~~~~~--|
      My friends all say they know me, it's not true

    E            Aadd9              E
e|--0--------------0----------------0-----------------------------------|
B|--0--------------0----------------0-----------------------------------|
G|--1--------------6----------------1-----------------------------------|
D|--2--------------7----------------2------9----------------------------|
A|--2--------------0----------------2-----------11---9---11-------------|
E|--0-------------------------------0-------------------------7~~~~~~---|
      They all say she's so lovely, it's not true

    E         Aadd9                 E
e|--0-----------0-------------------0-----------------------------------|
B|--0-----------0-------------------0-----------------------------------|
G|--1-----------6-------------------1-----------------------------------|
D|--2-----------7-------------------2------9----------------------------|
A|--2-----------0-------------------2----------11---9---11--------------|
E|--0-------------------------------0-------------------------7~~~~~----|
      My lovers think they know me, it's not true

    E            Aadd9                  E
e|--0--------------0--------------------0-------------------------------|
B|--0--------------0--------------------0-------------------------------|
G|--1--------------6--------------------1-------------------------------|
D|--2--------------7--------------------2----9--------------------------|
A|--2--------------0--------------------2--------11---9---11------------|
E|--0-----------------------------------0-----------------------7-------|
      They say you love me so well, but I can't do

   E5      E/C   E5     E/C   E5     
e|----------------------------------------------------------------------|
B|----------------------------------------------------------------------|
G|----------------------------------------------------------------------|
D|---------2222---------2222--------------------------------------------|
A|-2-------3333--2------3333--2------3322-------------------------------|
E|-0-------0000--0------0000--0------0000-------------------------------|



************************************

| /  Slide up
| ~  Vibrato 

************************************

            
            
Suggest correction
Creating personal tab
Creating personal tab
You can edit any tab online and save it as your Personal.

You can edit, replace or remove any tab part or add personal notes – all changes will be seen only by you.

Personal tabs can be accessed anytime from any device, even offline.
Learn more »
Give kudos to tab author, rate the tab!
1 2 3 4 5
comments
print report bad tab
guest
You may want to rate the tab now too:
select rating
Wanna post a correction for this tab? Suggest correction