Oops, an error
Loading. Please wait.

Pillow bass

950 views 1 this week
no commentswrite comment
1 2 3 4 5
3 more votes to show rating
add to favorites
×
Save as Personal and add changes to this tab that will be seen only by you. Learn more ›
×
You can save this tab as Personal to edit and correct it or add notes. All changes will be seen only by you. Learn more »
launch autoscroll
font size
0
reset
guitar tuner
edit
Autoscroll
slow
fast
+/-
esc
set tempo
stop
Author
Difficulty
 Title: Pillow (bass tab)
 Artist: Maryzark
 Album: Good Mournings
 Track No. 8
 Transcribed by: Allan John G. Amisola 
 E-mail add: kogure_18spider@yahoo.com
 Date/Time: October 26, 2007 ; 11:22pm

 Tuning: Drop D Bass

           OK mga dude!! Eto ay para sa mga antukin kagaya ko
             Para sa idol kong Maryzark... MABUHAY ANG PASAY!!!
                

 [Intro 1]
      
 G|-----------------------------|
 D|-----------------------------| 2x
 A|----------------55---5-5-----| Let ring niyo lang yung pinakahuling note
 D|---44---4-4------------------|   pagnakaulit na.

 [Intro 2]

 G|-------------------------------------------------------|
 D|----------------------------------7777-9999-6666-------| 4x
 A|------4-0-2-4-----44-0-2-4---5555----------------------|
 D|---44----------4---------------------------------------|
       
 
 [Verse 1]

 G|---------------------------------|
 D|---------------------------------| 2x
 A|------------------55---5-5-5-----|
 D|---44---4-4-4--------------------|
       
 [Verse 2]

 G|---------------------------------------------------------------|
 D|-----------------------------------5/7-6-7-7/9-7-6-7(77)\\\----| 2x
 A|------4-0-2-4-----44-0-2-4----(4)5-----------------------------|
 D|---44----------4-----------------------------------------------|


 [Refrain]

 G|---------------------------------------------------------------|
 D|---------------------------------------------------------------|
 A|---7-7-77-7-7-7---5-5-55-5-5-5---77777-7-7-7---55----55--------|
 D|---------------------------------------------------------------|


 [Chorus]

 G|----------------------------------|
 D|----------------------------------| 2x
 A|----0x16---------7x16---5x16------| note: x16= sixteen times continuous 
 D|----------4x16--------------------|

 
 [Verse 3] repeat verse 1
 [Verse 4] repeat verse 2
 [Repeat Refrain]
 [Repeat Chorus]

 [Repeat Intro 2] 2x only


 [Bass Solo]

 G|------------------------------|
 D|------------------------------| 5x
 A|------4-0-2-4-----44-0-2-4----| note: medyo may buwelo sa pangalawang ulit
 D|---44----------4--------------|        (yung nag-delay yung gitara) tapos...

 G|------------------------------|
 D|------------------------------|
 A|-------4-0-2-4----------------|
 D|----44-----------4------------|


  [Slow First Half of Chorus]

 G|-------------------------------------------------------------|
 D|-------------------------------------------------------------| tapos...
 A|---0-0-00-0-0-0----------------7-7-77-7-7-7--5-5-55-5-5-5----|
 D|-----------------4-4-44-4-4-4--------------------------------|

 G|----------------------------------|
 D|----------------------------------| 
 A|----0x16---------7x16---5x16------|
 D|----------4x16--------------------|

 
 [Repeat Chorus] 2x

 [Outro]

 G|------------------------------|
 D|------------------------------| 4x
 A|------4-0-2-4-----44-0-2-4----| 
 D|---44----------4--------------|

 [End]


 SONG PATTERN:

 Intro 1
 Intro 2
 Verse 1 (Isang umaga pang hindi nadadala...)
 Verse 2 (Walang sawa na ngang...)
 Refrain (wala rin naman akong ginagawa sayo..)
 Chorus  (Buti na lang ang managinip..)
 Verse 3 (Isang umaga pang mumulat ang mata..)
 Verse 4 (Walang sawa na ngang nag-aabang sa iyo..)
 Refrain
 Chorus
 Intro 2
 Bass Solo
 Slow First Half of Chorus
 Chorus
 Outro


            
            
Suggest correction
Creating personal tab
Creating personal tab
You can edit any tab online and save it as your Personal.

You can edit, replace or remove any tab part or add personal notes – all changes will be seen only by you.

Personal tabs can be accessed anytime from any device, even offline.
Learn more »
Give kudos to tab author, rate the tab!
1 2 3 4 5
comments
print report bad tab
guest
You may want to rate the tab now too:
select rating
Wanna post a correction for this tab? Suggest correction