Oops, an error
Loading. Please wait.

Miracle Mountain tab

version 1
version 1

Whole song

  • The Songster version cannot print, have autoscroll... Show more

Interactive

1,927 views 21 this week
no commentswrite comment
1 2 3 4 5
x 4
add to favorites
×
Save as Personal and add changes to this tab that will be seen only by you. Learn more ›
×
You can save this tab as Personal to edit and correct it or add notes. All changes will be seen only by you. Learn more »
launch autoscroll
font size
0
reset
how to read this tab
guitar tuner
edit
Autoscroll
slow
fast
+/-
esc
set tempo
stop
About this tab version
The Songster version cannot print, have autoscroll, change the font size, and other features that Ultimate Guitar does not have. Specifically printing. Was this info helpful? Yes No
!!!I do NOT own this tab!!! 
***Transcribed***
The owner is Santiago H ( http://www.songsterr.com/a/wa/user?id=487496 )
Original link: http://www.songsterr.com/a/wsa/masaaki-kishibe-miracle-mountain-tab-s268420t0

Update: Simplified/Autoscroll version below
--------------------------------------------
Song: Miracle Mountain
Artist: Masaaki Kishibe
Tuning: Open D (DADF#AD)
Capo: 2nd fret
BPM: 70~80
Time Signature: Common Time (4/4)
--------------------------------------------


 [Part A]
            let ring------------------------------------|
  1/4            4/4
  1             2                    3                  
                     ^        ^         ^                 
D|--------------||-------4----2------|--0---------------|
A|------------0-||---2--------4---4--|----4---0-2---0---|
F#|---------0---||*--0--------3---3--|--0---0-----------|
D|--------------||*----0---0----2----|------------2-----|
A|--------------||-------------------|--2-------0-----0-|
D|--------------||---5--------4------|------------------|
    H.      E E      E E E E  E E Q     E E E E E E E E

    let ring-----------------------------|
  4                    5                 
     ^        ^                   ^         
D|---------0-----------|-------0---------|
A|---2--------4---0----|-2--------2----0-|
F#|--0---0----3-----0--|-----0----0--0---|
D|-----0--------2------|---0-------------|
A|---------------------|-2--------2------|
D|---5--------4--------|-----------------|
     E E E E  E E E E    E E E E  Q  E E  

     let ring---------------------------|
  6                  7
     ^        ^         ^
D|-------4----2------|--0----------------|
A|---2--------4---4--|----4---0-2---0----|
F#|--0--------3---3--|--0---0------------|
D|-----0---0----2----|------------2------|
A|-------------------|--2-------0-----0--|
D|---5--------4------|-------------------|
     E E E E  E E Q     E E E E E E E E 

     let ring----------------------------|
  8                   9
     ^        ^                   ^
D|---------0----------|-------0-------4--|
A|---2--------4---0---|-2---------2------|
F#|--0---0----3-----0-|-----0-----0------|
D|-----0--------2-----|---0--------------|
A|--------------------|-2---------2------|
D|---5--------4-------|------------------|
     E E E E  E E E E   E E E E   Q   Q

 [Part B]
     let ring--------------------------|
  10                 11               
     ^        ^                           
D|---4--------0------|-------------0---|
A|---2---2----2---4--|-4-----0---------|
F#|--1---1----1------|---------0-------|
D|-----0---0----2----|-----0---------0-|
A|------------0------|---0-------0-----|
D|---2---------------|-0-------0-------|
     E E E E  E E Q    E E E E E E E E  

     let ring-----------------------|
  12                13
     ^
D|---4-------0---2/--|-4-----------0---|
A|---2---2---2-------|-------4---------|
F#|--1---1---1-------|-------3---------|
D|-----0---0---2-----|-----0---------0-|
A|-----------0-------|---0-------0-----|
D|---2---------------|-0-------0-------|
     E E E E E E Q     E E E E E E E E

     let ring---------------------------|
  14                 15                
     ^        ^         ^               
D|---4--------0------|--0-2p0------------|
A|---2---2----2---4--|--------4-----0----|
F#|--1---1----1------|--0---------0------|
D|-----0---0----2----|----------2--------|
A|------------0------|--2-----0-------0--|
D|---2---------------|-------------------|
     E E E E  E E Q     E E E E E E E E 

     let ring-------------------|   ----|
  16                  17
     ^        ^
D|-------0------------|-------0----------|
A|---2--------4---0---|-2-------2---0----|
F#|--0--------3-----0-|-----0---0-0---0--|
D|-----0---0----2-----|---0--------------|
A|--------------------|-2-------2--------|
D|---5--------4-------|------------------|
     E E E E  E E E E   E E E E E E E E

 [Part C]
     let ring----------------------------|
  18                    19
                          ~
D|---4-------------7----|----------0-------|
A|-------7-------9------|-9--------------0-|
F#|--5---5----10-----10-|-------10-----5---|
D|-----0---0------------|-----0------------|
A|-------------0--------|---0--------0-----|
D|---5------------------|-0--------0-------|
     E E E E   E E E  E   E E E  E E E E E

     let ring------------------------------|
  20                   21
     ^                   ~
D|---4-------------7-9-|-----------12-11-9-7-|
A|-------7-------9-----|-9-------------------|
F#|--5---5----10-------|--------12----10-8-7-|
D|-----0---0-----------|-----0---------------|
A|-------------0-------|---0-----------------|
D|---5-----------------|-0-------0--0--------|
     E E E E   E E E E   E E E   E  E  E E E

    let ring------------------------------|
  22                   23                 
                         ~                             
D|--4-------------7----|----------0-------|
A|------7-------9------|-9--------------0-|
F#|-5---5----10-----10-|-------10-----5---|
D|----0---0------------|-----0------------|
A|------------0--------|---0--------0-----|
D|--5------------------|-0--------0-------|
    E E E E   E E E  E   E E E  E E E E E  

     let ring-----------------------------|
  24                  25
     ^        ^    
D|---4--------4-------|-0----------0------|
A|-------7------7---7-|--------------4-0--|
F#|--5---5----5---5---|-------0-----------|
D|-----0---0----------|-----2-------------|
A|------------0-------|---0---------------|
D|---5----------------|-0--------0--------|
     E E E E  E E E E   E E E E  E E E E

 [Part D]
    let ring---------------------------|
  26                27                                                         
D|------0-----------|-------0---0------|
A|--2-------4---0---|-2-------2---4-0--|
F#|-0-------3-----0-|-----0---0--------|
D|----0---0---2-----|---0--------------|
A|------------------|-2-------2--------|
D|--5-------4-------|------------------|
    E E E E E E E E   E E E E E E E E   
   
    let ring-------------------------|
  28                 29
             ^
D|------0------0-2-4-|-----------------|
A|--2--------4-------|-------2-----0---|
F#|-0--------3-------|-----0-----------|
D|----0---0--4-------|---0-------2-----|
A|-----------0-------|-2-------0-----0-|
D|--5----------------|-----------------|
    E E E E  E E E E   E E E E E E E E

     let ring--------------------------|
  30                31                 
     ^                 ^                
D|------------------|--0-2-4-0---------|
A|---2-----2-4---0--|------------------|
F#|--0---0----------|--0-------5-----5-|
D|-----0-------2----|--------------6---|
A|-----------0------|--2---0-----7-----|
D|---5--------------|----------6-------|
    E E E E E E Q     E E E E E E E E  

                     1._________________
  let ring---------------------------|
  32                 33
     ^                          ^
D|---0---------------|-------0-----------||
A|---2---4-2-0-----0-|-2--------2----0---||
F#|--------------0---|-----0----0--0----*||
D|-----0-------2-----|---0--------------*||
A|-------------------|-2--------2--------||
D|---5-------4-------|-------------------||
     E E E E E E E E   E E E E  Q  E E

  2._________________ [Part C]
  let ring|  ----------------------------|
  34                  35
             ^
D|--------0----------||--4------------7----|
A|--2--------2---0---||------7------9------|
F#|-----0----0-0---0-||*-5---5---10-----10-|
D|----0--------------||*---0---0-----------|
A|--2--------2-------||-----------0--------|
D|-------------------||--5-----------------|
    E E E E  E E E E     E E E E  E E E  E

    let ring----------------------------|
  36                 37
    ~                   ^
D|-----------0-------|--4------------7-----|
A|--9--------------0-|------7------9-------|
F#|-------10-----5---|--5---5---10-----10--|
D|------0------------|----0---0------------|
A|----0--------0-----|-----------0---------|
D|--0--------0-------|--5------------------|
    E E E  E E E E E    E E E E  E E E  E
  
   let ring------------------------------|
  38                   39
    ~
D|-----------12-11-9-7-|-4------------7----|
A|--9------------------|-----7------9------|
F#|-------12----10-8-7-|-5---5---10-----10-|
D|------0--------------|---0---0-----------|
A|----0----------------|----------0--------|
D|--0------0--0--------|-5-----------------|
    E E E  E  E  E E E   E E E E  E E E  E

    let ring---------------------------|
  40                 41
    ~                   ^        ^
D|-----------0-------|--4--------4-------|
A|--9--------------0-|------7------7---7-|
F#|-------10-----5---|--5---5----5---5---|
D|------0------------|----0---0----------|
A|----0--------0-----|-----------0-------|
D|--0--------0-------|--5----------------|
    E E E  E E E E E    E E E E  E E E E

    1.______________________ 2._______________
    let ring| ----------------------|   ----|
  42                        43
D|--0-------0--------------||-0---------0-----|
A|----------------------0--||-------------4-0-|
F#|-------0-----------0---*||-------0---------|
D|------2---------0h2-----*||-----2-----------|
A|----0-------0h2----------||---0-------------|
D|--0-------0--------------||-0-------0-------|
    E E E E E S S S S S S     E E E E E E E E

 [Part D']
    let ring------------------------|
  44                 45
D|------0------------|-------0----0------|
A|--2--------4---0---|-2--------2---4-0--|
F#|-0--------3-----0-|-----0----0--------|
D|----0---0----2-----|---0---------------|
A|-------------------|-2--------2--------|
D|--5--------4-------|-------------------|
    E E E E  E E E E  E E E E  E E E E

  5/4 Q=75             4/4 Q=90
    let ring---------------------------|
  46                   47              
             ^                           
D|------0--------------|---------0-------|
A|--2--------4---0-----|-------2---2-----|
F#|-0--------3------0--|-----0-------0---|
D|----0---0----2-------|---0-----------0-|
A|-----------0---------|-2---------------|
D|--5------------------|-----------------|
    E E E E  E E Q  Q    E E E E E E E E 

    Q=150
    let ring-----------------------------|
  48               49                             
D|-------------4---|---------------------||
A|---------2-------|---------------------||
F#|------0---------|---------------------||
D|-----0-----------|---------------------||
A|---2-------------|---------------------||
D|-----------------|---------------------||
     E E E E.  Q.  

Duration Legend
---------------
W - whole
H - half
Q - quarter
E - 8th
S - 16th
. - note dotted


Tablature Legend
----------------
> - accentuded note
h - hammer on
p - pull off
/ -  slide into from below or out of upwards
~ - vibrato
^ - brush up

  [Part A1]          ^       ^      ^                 ^       ^                  ^
    1+ 2+ 3+ 4 +   1 + 2 + 3 + 4 +  1 + 2 + 3 + 4 +   1 + 2 + 3 + 4 +   1 + 2 +  3+ 4 +
D |--------------|-----4---2------|-0---------------|-------0---------|-------0---------|
A |------------0-|-2-------4---4--|---4---0-2---0---|-2-------4---0---|-2--------2----0-|
F#|----------0---|-0-------3---3--|-0---0-----------|-0---0---3-----0-|-----0----0--0---|
D |--------------|---0---0---2----|-----------2-----|---0-------2-----|---0-------------|
A |--------------|----------------|-2-------0-----0-|-----------------|-2--------2------|
D |--------------|-5-------4------|-----------------|-5-------4-------|-----------------|

    ^       ^        ^                 ^       ^                  ^
    1 + 2 + 3 + 4+   1 + 2 + 3 + 4 +   1 + 2 + 3 + 4 +   1 + 2 +  3 + 4 +
D |-----4---2------|-0---------------|-------0---------|-------0------4--|
A |-2-------4---4--|---4---0-2---0---|-2-------4---0---|-2--------2------|
F#|-0-------3---3--|-0---0-----------|-0---0---3-----0-|-----0----0------|
D |---0---0---2----|-----------2-----|---0-------2-----|---0-------------|
A |----------------|-2-------0-----0-|-----------------|-2--------2------|
D |-5-------4------|-----------------|-5-------4-------|-----------------|

  [Part B1]
    ^       ^                          ^       ^
    1 + 2 + 3 + 4+   1 + 2 + 3 + 4 +   1 + 2 + 3 + 4+   1 + 2 + 3 + 4 +
D |-4-------0------|-------------0---|-4-------0---2/-|-4-----------0----|
A |-2---2---2---4--|-4-----0---------|-2---2---2------|-------4----------|
F#|-1---1---1------|---------0-------|-1---1---1------|-------3----------|
D |---0---0---2----|-----0---------0-|---0---0---2----|-----0---------0--|
A |---------0------|---0-------0-----|---------0------|---0-------0------|
D |-2--------------|-0-------0-------|-2--------------|-0-------0--------|

    ^       ^        ^                 ^       ^
    1 + 2 + 3 + 4+   1 + 2 + 3 + 4 +   1 + 2 + 3 + 4 +   1 + 2 + 3 + 4 +
D |-4-------0------|-0-2p0-----------|-----0-----------|-------0---------|
A |-2---2---2---4--|-------4-----0---|-2-------4---0---|-2-------2---0---|
F#|-1---1---1------|-0---------0-----|-0-------3-----0-|-----0---0-0---0-|
D |---0---0---2----|---------2-------|---0---0---2-----|---0-------------|
A |---------0------|-2-----0-------0-|-----------------|-2-------2-------|
D |-2--------------|-----------------|-5-------4-------|-----------------|

  [Part C1]
    ^                    ~                  ^                   ~
    1 + 2 +   3 + 4  +   1 + 2  + 3 + 4 +   1 + 2 +   3 + 4 +   1 + 2   +  3  + 4 +
D |-4-------------7----|----------0-------|-4-------------7-9-|-----------12-11-9-7-|
A |-----7-------9------|-9--------------0-|-----7-------9-----|-9-------------------|
F#|-5---5---/10-----10-|-------10-----5---|-5---5---/10-------|-------/12----10-8-7-|
D |---0---0------------|-----0------------|---0---0-----------|-----0---------------|
A |-----------0--------|---0--------0-----|-----------0-------|---0-----------------|
D |-5------------------|-0--------0-------|-5-----------------|-0-------0--0--------|

    ^                    ~                  ^       ^
    1 + 2 +   3 + 4  +   1 + 2  + 3 + 4 +   1 + 2 + 3 + 4 +   1 + 2 + 3 + 4 +
D |-4-------------7----|----------0-------|-4-------4-------|-0---------0-----|
A |-----7-------9------|-9--------------0-|-----7-----7---7-|-------------4-0-|
F#|-5---5---/10-----10-|-------10-----5---|-5---5---5---5---|-------0---------|
D |---0---0------------|-----0------------|---0---0---------|-----2-----------|
A |-----------0--------|---0--------0-----|---------0-------|---0-------------|
D |-5------------------|-0--------0-------|-5---------------|-0-------0-------|

  [Part D1]                                     ^
    1 + 2 + 3 + 4 +   1 + 2 + 3 + 4 +   1 + 2 + 3 + 4 +   1 + 2 + 3 + 4 +
D |-----0-----------|-------0---0-----|-----0-----0-2-4-|-----------------|
A |-2-------4---0---|-2-------2---4-0-|-2-------4-------|-------2-----0---|
F#|-0-------3-----0-|-----0---0-------|-0-------3-------|-----0-----------|
D |---0---0---2-----|---0-------------|---0---0-4-------|---0-------2-----|
A |-----------------|-2-------2-------|---------0-------|-2-------0-----0-|
D |-5-------4-------|-----------------|-5---------------|-----------------|

    ^                ^                 ^                          ^
    1 + 2 + 3 + 4+   1 + 2 + 3 + 4 +   1 + 2 + 3 + 4 +   1 + 2 +  3+ 4 +
D |----------------|-0-2-4-0---------|-0---------------|-------0----------|
A |-2-----2-4---0--|-----------------|-2---4-2-0-----0-|-2--------2----0--|
F#|-0---0----------|-0-------5-----5-|-------------0---|-----0----0--0----|
D |---0-------2----|-------------6---|---0-------2-----|---0--------------|
A |---------0------|-2---0-----7-----|-----------------|-2--------2-------|
D |-5--------------|---------6-------|-5-------4-------|------------------|

  [Part A2]
    ^       ^        ^                 ^       ^                  ^
    1 + 2 + 3 + 4+   1 + 2 + 3 + 4 +   1 + 2 + 3 + 4 +   1 + 2 +  3+ 4 +
D |-----4---2------|-0---------------|-------0---------|-------0----------|
A |-2-------4---4--|---4---0-2---0---|-2-------4---0---|-2--------2----0--|
F#|-0-------3---3--|-0---0-----------|-0---0---3-----0-|-----0----0--0----|
D |---0---0---2----|-----------2-----|---0-------2-----|---0--------------|
A |----------------|-2-------0-----0-|-----------------|-2--------2-------|
D |-5-------4------|-----------------|-5-------4-------|------------------|

    ^       ^        ^                 ^       ^                  ^
    1 + 2 + 3 + 4+   1 + 2 + 3 + 4 +   1 + 2 + 3 + 4 +   1 + 2 +  3 + 4 +
D |-----4---2------|-0---------------|-------0---------|-------0------4---|
A |-2-------4---4--|---4---0-2---0---|-2-------4---0---|-2--------2-------|
F#|-0-------3---3--|-0---0-----------|-0---0---3-----0-|-----0----0-------|
D |---0---0---2----|-----------2-----|---0-------2-----|---0--------------|
A |----------------|-2-------0-----0-|-----------------|-2--------2-------|
D |-5-------4------|-----------------|-5-------4-------|------------------|

  [Part B2]
    ^       ^                          ^       ^  
    1 + 2 + 3 + 4+   1 + 2 + 3 + 4 +   1 + 2 + 3 + 4+   1 + 2 + 3 + 4 +
D |-4-------0------|-------------0---|-4-------0---2/-|-4-----------0-----|
A |-2---2---2---4--|-4-----0---------|-2---2---2------|-------4-----------|
F#|-1---1---1------|---------0-------|-1---1---1------|-------3-----------|
D |---0---0---2----|-----0---------0-|---0---0---2----|-----0---------0---|
A |---------0------|---0-------0-----|---------0------|---0-------0-------|
D |-2--------------|-0-------0-------|-2--------------|-0-------0---------|
   
    ^       ^        ^                 ^       ^
    1 + 2 + 3 + 4+   1 + 2 + 3 + 4 +   1 + 2 + 3 + 4 +   1 + 2 + 3 + 4 +
D |-4-------0------|-0-2p0-----------|-----0-----------|-------0----------|
A |-2---2---2---4--|-------4-----0---|-2-------4---0---|-2-------2---0----|
F#|-1---1---1------|-0---------0-----|-0-------3-----0-|-----0---0-0---0--|
D |---0---0---2----|---------2-------|---0---0---2-----|---0--------------|
A |---------0------|-2-----0-------0-|-----------------|-2-------2--------|
D |-2--------------|-----------------|-5-------4-------|------------------|

  [Part C2]
    ^                    ~                  ^                   ~
    1 + 2 +   3 + 4  +   1 + 2  + 3 + 4 +   1 + 2 +   3 + 4 +   1 + 2   +  3  + 4 +
D |-4-------------7----|----------0-------|-4-------------7-9-|-----------12-11-9-7-|
A |-----7-------9------|-9--------------0-|-----7-------9-----|-9-------------------|
F#|-5---5---/10-----10-|-------10-----5---|-5---5---/10-------|-------/12----10-8-7-|
D |---0---0------------|-----0------------|---0---0-----------|-----0---------------|
A |-----------0--------|---0--------0-----|-----------0-------|---0-----------------|
D |-5------------------|-0--------0-------|-5-----------------|-0-------0--0--------|

    ^                    ~                  ^       ^
    1 + 2 +   3 + 4  +   1 + 2  + 3 + 4 +   1 + 2 + 3 + 4 +   1 + 2 + 3 + 4 +
D |-4-------------7----|----------0-------|-4-------4-------|-0---------0-----|
A |-----7-------9------|-9--------------0-|-----7-----7---7-|-------------4-0-|
F#|-5---5---/10-----10-|-------10-----5---|-5---5---5---5---|-------0---------|
D |---0---0------------|-----0------------|---0---0---------|-----2-----------|
A |-----------0--------|---0--------0-----|---------0-------|---0-------------|
D |-5------------------|-0--------0-------|-5---------------|-0-------0-------|

  [Part D2]                                     ^
    1 + 2 + 3 + 4 +   1 + 2 + 3 + 4 +   1 + 2 + 3 + 4 +   1 + 2 + 3 + 4 +
D |-----0-----------|-------0---0-----|-----0-----0-2-4-|-----------------|
A |-2-------4---0---|-2-------2---4-0-|-2-------4-------|-------2-----0---|
F#|-0-------3-----0-|-----0---0-------|-0-------3-------|-----0-----------|
D |---0---0---2-----|---0-------------|---0---0-4-------|---0-------2-----|
A |-----------------|-2-------2-------|---------0-------|-2-------0-----0-|
D |-5-------4-------|-----------------|-5---------------|-----------------|

    ^                ^                 ^                         ^
    1 + 2 + 3 + 4+   1 + 2 + 3 + 4 +   1 + 2 + 3 + 4 +   1 + 2 + 3 + 4 +
D |----------------|-0-2-4-0---------|-0---------------|-------0----------|
A |-2-----2-4---0--|-----------------|-2---4-2-0-----0-|-2-------2---0----|
F#|-0---0----------|-0-------5-----5-|-------------0---|-----0---0-0---0--|
D |---0-------2----|-------------6---|---0-------2-----|---0--------------|
A |---------0------|-2---0-----7-----|-----------------|-2-------2--------|
D |-5--------------|---------6-------|-5-------4-------|------------------|

  [Part C3]
    ^                   ~                  ^                   ~
    1 + 2 +  3 + 4  +   1 + 2  + 3 + 4 +   1 + 2 +  3 + 4 +    1 + 2  +  3  + 4 +
D |-4------------7----|----------0-------|-4------------7----|----------12-11-9-7--|
A |-----7------9------|-9--------------0-|-----7------9------|-9-------------------|
F#|-5---5---10-----10-|-------10-----5---|-5---5---10-----10-|-------12----10-8-7--|
D |---0---0-----------|-----0------------|---0---0-----------|-----0---------------|
A |----------0--------|---0--------0-----|----------0--------|---0-----------------|
D |-5-----------------|-0--------0-------|-5-----------------|-0------0--0---------|

    ^                   ~                  ^       ^
    1 + 2 +  3 + 4  +   1 + 2  + 3 + 4 +   1 + 2 + 3 + 4 +   1 + 2 + 3 +   4   +
D |-4------------7----|----------0-------|-4-------4-------|-0-------0-------------|
A |-----7------9------|-9--------------0-|-----7-----7---7-|---------------------0-|
F#|-5---5---10-----10-|-------10-----5---|-5---5---5---5---|-------0-----------0---|
D |---0---0-----------|-----0------------|---0---0---------|-----2---------0h2-----|
A |----------0--------|---0--------0-----|---------0-------|---0-------0h2---------|
D |-5-----------------|-0--------0-------|-5---------------|-0-------0-------------|

    ^                   ~                  ^                   ~
    1 + 2 +  3 + 4  +   1 + 2  + 3 + 4 +   1 + 2 +  3 + 4 +    1 + 2  +  3  + 4 +
D |-4------------7----|----------0-------|-4------------7----|----------12-11-9-7--|
A |-----7------9------|-9--------------0-|-----7------9------|-9-------------------|
F#|-5---5---10-----10-|-------10-----5---|-5---5---10-----10-|-------12----10-8-7--|
D |---0---0-----------|-----0------------|---0---0-----------|-----0---------------|
A |----------0--------|---0--------0-----|----------0--------|---0-----------------|
D |-5-----------------|-0--------0-------|-5-----------------|-0------0--0---------|

    ^                   ~                  ^       ^
    1 + 2 +  3 + 4  +   1 + 2  + 3 + 4 +   1 + 2 + 3 + 4 +   1 + 2 + 3 + 4 +
D |-4------------7----|----------0-------|-4-------4-------|-0---------0-----|
A |-----7------9------|-9--------------0-|-----7-----7---7-|-------------4-0-|
F#|-5---5---10-----10-|-------10-----5---|-5---5---5---5---|-------0---------|
D |---0---0-----------|-----0------------|---0---0---------|-----2-----------|
A |----------0--------|---0--------0-----|---------0-------|---0-------------|
D |-5-----------------|-0--------0-------|-5---------------|-0-------0-------|

  [Ending]                                      ^                          
    1 + 2 + 3 + 4 +   1 + 2 + 3 + 4 +   1 + 2 + 3 + 4 +   1 + 2 + 3 + 4 +   
D |-----0-----------|-------0---0-----|-----0-----------|---------0-------|
A |-2-------4---0---|-2-------2---4-0-|-2-------4---0---|-------2---2-----|
F#|-0-------3-----0-|-----0---0-------|-0-------3-----0-|-----0-------0---|
D |---0---0---2-----|---0-------------|---0---0---2-----|---0-----------0-|
A |-----------------|-2-------2-------|---------0-------|-2---------------|
D |-5-------4-------|-----------------|-5---------------|-----------------|

    ^ 
    1 + 2 + 3 + 4 +
D |-4--------------||
A |-2--------------||
F#|-0--------------||
D |-0--------------||
A |-2--------------||
D |----------------||

Tablature Legend
----------------
> - accentuded note
h - hammer on
p - pull off
/ -  slide into from below or out of upwards
~ - vibrato
^ - brush up

            
            
Suggest correction
Creating personal tab
Creating personal tab
You can edit any tab online and save it as your Personal.

You can edit, replace or remove any tab part or add personal notes – all changes will be seen only by you.

Personal tabs can be accessed anytime from any device, even offline.
Learn more »
comments
print report bad tab
guest
You may want to rate the tab now too:
select rating
Wanna post a correction for this tab? Suggest correction