Oops, an error
Loading. Please wait.

Shine Of Winter Thaw tab

103 views 1 this week
no commentswrite comment
1 2 3 4 5
2 more votes to show rating
add to favorites
×
Save as Personal and add changes to this tab that will be seen only by you. Learn more ›
×
You can save this tab as Personal to edit and correct it or add notes. All changes will be seen only by you. Learn more »
launch autoscroll
font size
0
reset
how to read this tab
guitar tuner
edit
Autoscroll
slow
fast
+/-
esc
set tempo
stop
Based off of Kangho Lee's YouTube video (6 part series), 
https://www.youtube.com/watch?v=HsNMTOBb8-Y
Kanaho222 song construction and confirmation,
https://www.youtube.com/watch?v=7nzuDfAj_nE
--------------------------------------------
Song: Thank You For...
Artist: Masaaki Kishibe
Song: Shine of Winter Thaw
Tuning: DADGAD (Dsus4 / Celtic Tuning)
Capo: 4th Fret
Recommended Tempo: Allegro (120–168 bpm)
Time Signature: 3/4
--------------------------------------------

[A1]
     E E E E E E   E E E E E E   E E E E E E   E E E E E E
D||------0---0---|-----------0-|-2p0---------|-------------|
A||--------4---2-|-------2h4---|-----4---0---|-----------0-|
G||*-------------|-----0-------|-------4---0-|-----0---0---|
D||*---4---------|---0---------|-------------|---4---4-----|
A||--2-----------|-------------|-0-----------|-------------|
D||--------------|-5-----------|-------------|-0-----------|


   E E E E E E   E E E E E E   E E E E E E    Q   Q   Q
D|-------------|-------------|-------------|------0--------|
A|---0---------|-------------|-------------|---------------|
G|-4---0-------|-----------0-|-------------|---------------|
D|-------4---0-|-----0---0---|-----4---2h4-|---------------|
A|---------7---|---4---4-----|---0---0-----|---------0-----|
D|-5-----------|-7-----------|-0-----------|--0------------|


   E E E E E a E   E E E E E E   E E E E E E   E E E E E E
D|-----0---0-2/4-|---------0---|-----0-------|-5p4-----0---|
A|-------4-------|-------5-----|-4-------7---|-------7-----|
G|---------------|-----0-----0-|---0---0---0-|-----------4-|
D|---4-----------|---0---------|-------------|-----0-------|
A|-2-------------|-------------|-0-----------|-------------|
D|---------------|-5-----------|-------------|-0-----------|


   E E E E E E   E E E E E E   E E E E E E   H      Q
D|---------0---|-2h4p2p0---0-|-----------0-|--------------||
A|-----0-------|---------4---|---0---------|--------------||
G|-------4---0-|-------------|-----0---0---|-------------*||
D|---0---------|-------------|-------4-----|-------------*||
A|-------------|-0-----------|-------------|--------0-----||
D|-5-----------|-------------|-0-----------|-0------------||

[B1]
   E E E E E E   E E E E E E   E E E E E E   E E E E  Q
D|-----0---0-2-|-----0-------|-------------|---------------|
A|-------3-----|-------3---0-|---------0---|----------0----|
G|-------------|---0-----0---|-------0---0-|-------0-------|
D|---3---------|-------------|-----3-------|-----0---------|
A|-1-----------|-3-----------|---3---------|---2-----------|
D|-------------|-------------|-3-----------|-5-------------|

                                            ^
   E E E E  Q    Q   Q   Q    Q   Q   Q     E E E E  Q
D|-------------|------------|------------|-----------------|
A|---0---------|------------|------------|--0h1p0----------|
G|-0---0-------|------------|---------0--|--0-----0--------|
D|-------3-----|-0---2---3--|-2---3------|-----------2-----|
A|-1--------1--|-2----------|-3----------|--4--------------|
D|-------------|------------|------------|-----------------|


   E E E E E E   E E E E E E   E E E E E E   E E E E  Q
D|-----------0-|-----------0-|-2p0---------|---------------|
A|-------0-----|-------------|-----3---0-3-|----------0----|
G|-----0-------|-----0---0---|-------0-----|-------0-------|
D|-2h3-----3---|---3---3-----|-------------|-----3---------|
A|-------------|-1-----------|-3-----------|---3-----------|
D|-0-----------|-------------|-------------|-3-------------|


   E E E E E E   E E E E E E   Q  E S S Q    H       E E
D|-------------|-------------|-------------|---------------|
A|---0---------|-------------|-------------|---------------|
G|-0---0-------|-------------|-------------|-----------0---|
D|-------3---0-|-2p0---0h2---|-0----2/3\2--|-0-------3-----|
A|-1-------1---|-3---3-----3-|----0--------|---------------|
D|-------------|-------------|-0-----------|-0-------------|


  [C1]
    Q   E E E E   Q   Q   Q    E E E E E E   Q   E E E E
D|--------------|------------|-------------|---------------|
A|--0---------0-|------------|-------0h1---|-0---------0---|
G|----------0---|-----0------|-----0-----0-|---------0-----|
D|--------3-----|-0-------0--|-2-3---------|-------3-------|
A|------3-------|-1----------|-3-----------|-----3---------|
D|--3-----------|------------|-------------|-3-------------|


    Q    E E E E   Q   Q   Q    E E E E E E   Q   E E E E
D|---------------|------------|-------------|--------------|
A|-(0)---------0-|------------|-------------|--------------|
G|-----------0---|-----0------|-------------|-----------0--|
D|---------3-----|-0-------0--|-2p0---0h2---|-0-----0-3----|
A|-------3-------|-1----------|-3---3-----3-|-----0--------|
D|--3------------|------------|-------------|-0------------|


    Q   E E E E   Q   E E E E   E E E E  Q    Q   E Q   E
D|--------------|-0-------0---|-2p0---------|-7-----5---7--|
A|--0-------3p0-|-------------|-----3----3/=|=8-----7---8--|
G|--------------|-------0---0-|-------0-----|--------------|
D|--------3-----|-----3-------|-------------|-----0--------|
A|------3-------|-1-----------|-3-----------|--------------|
D|--3-----------|-------------|-------------|-0------------|


    Q   E E E E   E E E E E E   E E E E E E   E E  Q   Q
D|--0-------0---|-2p0-------0-|-----------0-|------0-------|
A|--------------|-----3---0---|---0---------|--------------|
G|--------0---0-|-------0-----|-----0---0---|--------------|
D|--------------|-------------|-------4-----|-2h4----------|
A|------8-------|-3-----------|-------------|----------0---|
D|--8-----------|-------------|-0-----------|-0------------|

[A2]
   E E E E E E   E E E E E E   E E E E E E   E E E E E E
D|-----0---0---|-----------0-|-2p0---------|---------------|
A|-------4---2-|-------2h4---|-----4---0---|-----------0---|
G|-------------|-----0-------|-------4---0-|-----0---0-----|
D|---4---------|---0---------|-------------|---4---4-------|
A|-2-----------|-------------|-0-----------|---------------|
D|-------------|-5-----------|-------------|-0-------------|


   E E E E E E   E E E E E E   E E E E E E    Q   Q   Q
D|-------------|-------------|-------------|------0--------|
A|---0---------|-------------|-------------|---------------|
G|-4---0-------|-----------0-|-------------|---------------|
D|-------4---0-|-----0---0---|-----4---2h4-|---------------|
A|---------7---|---4---4-----|---0---0-----|----------0----|
D|-5-----------|-7-----------|-0-----------|--0------------|


   E E E E E a E   E E E E E E   E E E E E E   E E E E E E
D|-----0---0-2/4-|---------0---|-----0-------|-5p4-----0---|
A|-------4-------|-------5-----|-4-------7---|-------7-----|
G|---------------|-----0-----0-|---0---0---0-|-----------4-|
D|---4-----------|---0---------|-------------|-----0-------|
A|-2-------------|-------------|-0-----------|-------------|
D|---------------|-5-----------|-------------|-0-----------|


   E E E E E E   E E E E E E   E E E E E E    H      Q
D|---------0---|-2h4p2p0---0-|-----------0-|---------------|
A|-----0-------|---------4---|---0---------|---------------|
G|-------4---0-|-------------|-----0---0---|---------------|
D|---0---------|-------------|-------4-----|---------------|
A|-------------|-0-----------|-------------|---------0-----|
D|-5-----------|-------------|-0-----------|--0------------|

[D1]
   E E E E E E   E E E E E E   E E E E E E   E E E E E E
D|-----------0-|-----------0-|-------------|-0---------0---|
A|-------------|-------------|-------0---4-|---0-----------|
G|-----0---0---|-----0---0---|-----0---4---|-----0---0-----|
D|---4---4-----|---4---4-----|---2---------|-------4-------|
A|-3-----------|-2-----------|-0-----------|---------------|
D|-------------|-------------|-------------|-0-------------|

                                                ^
   E E E E E E   E E E E E E   E S S E E E E    H      Q
D|-----------0-|-----------0-|-----------4---|---------7---|
A|-------------|-------------|---------4---7-|--5----------|
G|-----0---0---|-----0---0---|-------4-------|-------------|
D|---4---4-----|---4---4-----|---2/5---------|--4----------|
A|-3-----------|-2-----------|-0-------------|-------------|
D|-------------|-------------|---------------|--0----------|
 
[E1]
   ^
   E E E E E E   E E E E E E   E E E E E E   E E E E E E
D|-7-----5p3---|---------3-5-|-----------3-|-0---------0---|
A|-----------7-|-------7-----|-7-------7---|---------------|
G|-3---3-------|-----3-------|-------5-----|-----0---0-----|
D|-------------|---5---------|-----3-------|---3---3-------|
A|---5---------|-3-----------|---3---------|-1-------------|
D|-5-----------|-------------|-3-----------|---------------|


   E E E E E E   E E E E E E   E E E E E E   E E E E E E
D|-------------|-------------|-------------|---1p0---------|
A|---0---------|-------------|-----------0-|-------3---0---|
G|-3---0-------|-----------0-|-------------|---------3-----|
D|-------3-2-0-|-----0-2-3---|-----3---2---|---------------|
A|-------------|-0-4---------|---0---0-----|---------------|
D|-2-----------|-------------|-0-----------|-0-------------|


   E E E E E E   E E E E E E   E E E E E E   E E E E E E
D|-------------|-------------|-------------|---------------|
A|---0---------|-----------0-|-------------|---------------|
G|-3---0-------|---------0---|---0---------|-----------0---|
D|-------3---0-|---0-2-3-----|-----3-2-0---|-----0---0-----|
A|---------7---|-3-----------|-----------3-|-1-3---3-------|
D|-5-----------|-------------|-3-----------|---------------|


   E E E E E E   E E E E E E   E E E E E E   E E   Q   Q
D|-------------|-------------|-0---------0-|-------0-------|
A|---0---------|-------0---4-|---0---------|---------------|
G|-3---0-------|-----0---4---|-----0---0---|---------------|
D|-------3-2-0-|---2---------|-------4-----|-2h4-----------|
A|-------------|-0-----------|-------------|-----------0---|
D|-2-----------|-------------|-0-----------|-0-------------|
 
[A3]
   E E E E E E   E E E E E E   E E E E E E   E E E E E E
D|-----0---0---|-----------0-|-2p0---------|---------------|
A|-------4---2-|-------2h4---|-----4---0---|-----------0---|
G|-------------|-----0-------|-------4---0-|-----0---0-----|
D|---4---------|---0---------|-------------|---4---4-------|
A|-2-----------|-------------|-0-----------|---------------|
D|-------------|-5-----------|-------------|-0-------------|


   E E E E E E   E E E E E E   E E E E E E    Q   Q   Q
D|-------------|-------------|-------------|------0--------|
A|---0---------|-------------|-------------|---------------|
G|-4---0-------|-----------0-|-------------|---------------|
D|-------4---0-|-----0---0---|-----4---2h4-|---------------|
A|---------7---|---4---4-----|---0---0-----|----------0----|
D|-5-----------|-7-----------|-0-----------|--0------------|


   E E E E E a E   E E E E E E   E E E E E E   E E E E E E
D|-----0---0-2/4-|---------0---|-----0-------|-5p4-----0---|
A|-------4-------|-------5-----|-4-------7---|-------7-----|
G|---------------|-----0-----0-|---0---0---0-|-----------4-|
D|---4-----------|---0---------|-------------|-----0-------|
A|-2-------------|-------------|-0-----------|-------------|
D|---------------|-5-----------|-------------|-0-----------|


   E E E E E E   E E E E E E   E E E E E E   H       Q 
D|---------0---|-2h4p2p0---0-|-----------0-|---------------|
A|-----0-------|---------4---|---0---------|---------------|
G|-------4---0-|-------------|-----0---0---|---------------|
D|---0---------|-------------|-------4-----|---------------|
A|-------------|-0-----------|-------------|---------0-----|
D|-5-----------|-------------|-0-----------|-0-------------|


 [B2]
   E E E E E E   E E E E E E   E E E E E E   E E E E  Q
D|-----0---0-2-|-----0-------|-------------|---------------|
A|-------3-----|-------3---0-|---------0---|----------0----|
G|-------------|---0-----0---|-------0---0-|-------0-------|
D|---3---------|-------------|-----3-------|-----0---------|
A|-1-----------|-3-----------|---3---------|---2-----------|
D|-------------|-------------|-3-----------|-5-------------|

                                             ^
   E E E E  Q     Q   Q   Q     Q   Q   Q    E E E E  Q
D|-------------|-------------|-------------|---------------|
A|---0---------|-------------|-------------|-0h1p0---------|
G|-0---0-------|-------------|----------0--|-0-----0-------|
D|-------3-----|--0---2---3--|--2---3------|----------2----|
A|-1--------1--|--2----------|--3----------|-4-------------|
D|-------------|-------------|-------------|---------------|


   E E E E E E   E E E E E E   E E E E E E   E E E E  Q
D|-----------0-|-----------0-|-2p0---------|---------------|
A|-------0-----|-------------|-----3---0-3-|----------0----|
G|-----0-------|-----0---0---|-------0-----|-------0-------|
D|-2h3-----3---|---3---3-----|-------------|-----3---------|
A|-------------|-1-----------|-3-----------|---3-----------|
D|-0-----------|-------------|-------------|-3-------------|


   E E E E E E   E E E E E E   Q  E S S Q    H       E E
D|-------------|-------------|-------------|---------------|
A|---0---------|-------------|-------------|---------------|
G|-0---0-------|-------------|-------------|-----------0---|
D|-------3---0-|-2p0---0h2---|-0----2/3\2--|-0-------3-----|
A|-1-------1---|-3---3-----3-|----0--------|---------------|
D|-------------|-------------|-0-----------|-0-------------|

 [C2]
    Q  E E E E    Q   Q   Q    E E E E E E   Q   E E E E
D|-------------|-------------|-------------|---------------|
A|--0--------0-|-------------|-------0h1---|-0---------0---|
G|---------0---|------0------|-----0-----0-|---------0-----|
D|-------3-----|--0-------0--|-2-3---------|-------3-------|
A|-----3-------|--1----------|-3-----------|-----3---------|
D|--3----------|-------------|-------------|-3-------------|


    Q   E E E E   Q   Q   Q    E E E E E E    Q  E E E E
D|--------------|------------|-------------|---------------|
A|-(0)--------0-|------------|-------------|---------------|
G|----------0---|-----0------|-------------|-----------0---|
D|--------3-----|-0-------0--|-2p0---0h2---|--0----0-3-----|
A|------3-------|-1----------|-3---3-----3-|-----0---------|
D|--3-----------|------------|-------------|--0------------|


    Q  E E E E    Q  E E E E   E E E E  Q    Q   E Q   E
D|-------------|--0------0---|-2p0---------|-7-----5---7---|
A|--0------3p0-|-------------|-----3----3/=|=8-----7---8---|
G|-------------|-------0---0-|-------0-----|---------------|
D|-------3-----|-----3-------|-------------|-----0---------|
A|-----3-------|--1----------|-3-----------|---------------|
D|--3----------|-------------|-------------|-0-------------|


    Q  E E E E   E E E E E E   E E E E E E   E E  Q   Q
D|--0------0---|-2p0-------0-|-----------0-|------0--------|
A|-------------|-----3---0---|---0---------|---------------|
G|-------0---0-|-------0-----|-----0---0---|---------------|
D|-------------|-------------|-------4-----|-2h4-----------|
A|-----8-------|-3-----------|-------------|----------0----|
D|--8----------|-------------|-0-----------|-0-------------|

[Ending]
   E E E E E E   E E E E E E   E E E E E E   E E  Q   Q
D|-----0-----0-|-2p0-------0-|-----------0-|------0--------|
A|-------3-----|-----3---0---|---0---------|---------------|
G|---------0---|-------0-----|-----0---0---|---------------|
D|---3---------|-------------|-------4-----|-2h4-----------|
A|-1-----------|-3-----------|-------------|----------0----|
D|-------------|-------------|-0-----------|-0-------------|


   E E E E E E   E E E E E E   E E E E E E    Q H
D|-----0-----0-|-2p0-------0-|-----------0-|--------------||
A|-------3-----|-----3---0---|---0---------|--------------||
G|---------0---|-------0-----|-----0---0---|--------------||
D|---3---------|-------------|-------4-----|--2h4---------||
A|-1-----------|-3-----------|-------------|--------------||
D|-------------|-------------|-0-----------|--0-----------||
 
************************************

Duration Legend
---------------
W - whole
H - half
Q - quarter
E - 8th
S - 16th
. - note dotted
a - acciaccatura (a grace note performed as quickly as possible 
                  before an essential note of a melody, and falling 
                  before the beat)



Tablature Legend
----------------
() - tied note
> - accentuded note
h - hammer on
p - pull off
^ - brush up
/ -  slide into from below or out of upwards
\ - slide out from above or out of downwards

************************************

            
            
Suggest correction
Creating personal tab
Creating personal tab
You can edit any tab online and save it as your Personal.

You can edit, replace or remove any tab part or add personal notes – all changes will be seen only by you.

Personal tabs can be accessed anytime from any device, even offline.
Learn more »
Give kudos to tab author, rate the tab!
1 2 3 4 5
comments
print report bad tab
guest
You may want to rate the tab now too:
select rating
Wanna post a correction for this tab? Suggest correction