Oops, an error
Loading. Please wait.

Time Travel tab

version 1
version 1

Whole song

Interactive

4,414 views 3 this week
1 commentread comment
1 2 3 4 5
2 more votes to show rating
add to favorites
×
Save as Personal and add changes to this tab that will be seen only by you. Learn more ›
×
You can save this tab as Personal to edit and correct it or add notes. All changes will be seen only by you. Learn more »
launch autoscroll
font size
0
reset
how to read this tab
guitar tuner
edit
Autoscroll
slow
fast
+/-
esc
set tempo
stop
Author
Time Travel - Masaaki Kishibe - 12 Stories
CGDAD Tuning - Capo Fret 3
BPM = 120

      PM PM PM PM PM PM PM PM    PM PM PM PM PM PM PM PM  
      E  E  E  E  E  E  E  E     E  E  E  E  E  E  E  E   
D||---------------------------|--------------------------|
A||---------------------------|--------------------------|
G||*--------------------------|-----------------0--------|
D||*--------2-----------4-----|--------4-----4-----4-----|
G||------0-----0-----2-----2--|-----4-----4-----------4--|
C||---0-----------2-----------|--4-----------------------|


  PM PM PM PM PM PM PM PM    PM PM PM PM PM PM    PM    
  E  E  E  E  E  E  E  E     E  E  E  E  E  E  E  E     
--------------------------|---------------------------||
--------------------------|--------------------0--L---||
--------------------------|-----------------0--------*||
--------2-----------4-----|--------4-----4-----------*||
-----0-----0-----2-----2--|-----4-----4-----------4---||
--0-----------2-----------|--4------------------------||


  PM PM PM PM PM PM PM PM    PM PM PM PM PM           
  E  E  E  E  E  E  E  E     E  E  E  E  E  E  E  E   
--------------------------|-----------------0--5--4--|
--------------0-----------|--------------------------|
--------0--------0-----0--|--------0-----------------|
-----0-----0--------0-----|-----0-----0--------------|
--0-----------------------|--0-----------0-----------|
--------------------------|--------------------------|


  PM PM       PM PM          PM PM       PM           
  E  E  E  E  E  E  E  E     E  E  E  E  E  E  E  E   
--2--2-----0-----0--------|--------------------------|
-----------------------2--|--L-----------L-----------|
--------------------------|-----------0-----0--2--4--|
--------------------------|--------4-----------------|
-----0-----------2--------|-----4--------------------|
--0-----x-----2-----x-----|--4-----------4-----------|


  PM PM       PM PM          PM            PM           
  E  E  E  E  E  E  E  E     E  E  S  S E  E  E  E  E   
-----------------------0--|--L----------------0--5--4--|
--3--2-----0--------------|--------0h-2----------------|
-----------------0--------|-------------0--------------|
--------------------------|-----0----------------------|
-----0-----------2--------|--0-------------0-----------|
--0-----x-----2-----x-----|----------------------------|


  PM PM       PM PM          PM PM       PM           
  E  E  E  E  E  E  E  E     E  E  E  E  E  E  E  E   
--2--2-----0-----0--4--5--|--L-----------L-----------|
--------------------------|--------------------------|
--------------------------|-----------0-----0--2--4--|
--------------------------|--------4-----------------|
-----0-----------2--------|-----4--------------------|
--0-----x-----2-----------|--4-----------4-----------|


  PM PM       PM PM          PM          PM           
  E  E  E  E  E  E  E  E     E  E  E  E  E  E  E  E   
--------------------------|-----------------0--5--4--|
--3--2-----0--------------|--------------------------|
-----------------0-----0--|--------------------------|
--------------------------|-----0-----0--------------|
-----0-----------2--------|--0-----------0-----------|
--0-----x-----2-----x-----|--------x-----------------|


    PM PM       PM PM          PM PM       PM           
    E  E  E  E  E  E  E  E     E  E  E  E  E  E  E  E   
|---2--2-----0-----0--------|--------------------------|
|------------------------2--|--L-----------L-----------|
|*--------------------------|-----------0-----0--2--4--|
|*--------------------------|--------4-----------------|
|------0-----------2--------|-----4--------------------|
|---0-----x-----2-----x-----|--4-----------4-----------|


  PM PM       PM PM          PM            PM           
  E  E  E  E  E  E  E  E     E  E  S  S E  E  E  E  E   
-----------------------0--|--L----------------0--5--4--|
--3--2-----0--------------|--------0h-2----------------|
-----------------0--------|-------------0--------------|
--------------------------|-----0----------------------|
-----0-----------2--------|--0-------------0-----------|
--0-----x-----2-----x-----|----------------------------|


  PM PM       PM PM          PM PM       PM           
  E  E  E  E  E  E  E  E     E  E  E  E  E  E  E  E   
--2--2-----0-----0--4--5--|--L-----------L-----------|
--------------------------|--------------------------|
--------------------------|-----------0-----0--2--4--|
--------------------------|--------4-----------------|
-----0-----------2--------|-----4--------------------|
--0-----x-----2-----------|--4-----------4-----------|


  PM PM       PM PM          PM          PM           
  E  E  E  E  E  E  E  E     E  E  E  E  E  E  E  E   
--------------------------|-----------------0--0--0--|
--3--2-----0--------------|--------------------------|
-----------------0-----0--|--L-----------------------|
--------------------------|-----0-----0--------------|
-----0-----------2--------|--0-----------0-----------|
--0-----x-----2-----x-----|--------x-----------------|


  PM PM       PM PM          PM          PM PM        
  E  E  E  E  E  E  E  E     E  E  E  E  E  E  E  E   
--0-----------------------|--------------------------|
-----3-----3-----------3--|--L--2--0-----------------|
--------------------------|-----------0--L-----L--0--|
--------------------------|--------------------------|
-----0-----------2--------|--0--------------4--------|
--0-----x-----2-----x-----|--------------4-----x-----|


  PM PM       PM PM          PM            PM           
  E  E  E  E  E  E  E  E     E  E  S  S E  E  E  E  E   
-----------------------0--|--L----------------0--0--0--|
--------------------------|----------------------------|
--L-----L--0--L-----------|--------2h-4-0--------------|
--------------------4-----|-----0----------------------|
-----0-----------2--------|--0-------------0-----------|
--0-----x-----2-----------|----------------------------|


  PM PM       PM PM          PM          PM              
  E  E  E  E  E  E  E  E     E  E  E  E  E  S  S  E  E   
--0--------2-----4-----5--|--L--------------------------|
-----3-----3--------------|-----3-----0-----------------|
--------------------------|--------4--------2s-4s-2--0--|
--------------------------|-----------------------------|
-----0-----------2--------|-----------------------------|
--0-----x-----2-----x-----|--4-----------4--------------|


  PM PM       PM PM          PM          PM              
  E  E  E  E  E  E  E  E     E  E  E  E  E  S  S  E  E   
--------------------------|-----------------------------|
--------------------------|-----------------3s-5s-3--2--|
--L-----L--0-----------0--|--L--------------2s-4s-2--0--|
--------------------------|-----0-----0-----------------|
-----0-----------2--------|--0-----------0--------------|
--0-----x-----2-----x-----|--------x--------------------|


  PM PM       PM PM          PM          PM           
  E  E  E  E  E  E  E  E     E  E  E  E  E  E  E  E   
--------------------------|-----------------0--5--4--|
--L-----L--0--------------|--------------------------|
--L-----L--------0-----0--|--L-----------------------|
--------------------------|-----0-----0--------------|
-----0-----------2--------|--0-----------0-----------|
--0-----x-----2-----x-----|--------x-----------------|


  PM PM       PM PM          PM PM       PM           
  E  E  E  E  E  E  E  E     E  E  E  E  E  E  E  E   
--2--2-----0-----0--------|--------------------------|
-----------------------2--|--L-----------L-----------|
--------------------------|-----------0-----0--2--4--|
--------------------------|--------4-----------------|
-----0-----------2--------|-----4--------------------|
--0-----x-----2-----x-----|--4-----------4-----------|


  PM PM       PM PM          PM            PM           
  E  E  E  E  E  E  E  E     E  E  S  S E  E  E  E  E   
-----------------------0--|--L----------------0--5--4--|
--3--2-----0--------------|--------0h-2----------------|
-----------------0--------|-------------0--------------|
--------------------------|-----0----------------------|
-----0-----------2--------|--0-------------0-----------|
--0-----x-----2-----x-----|----------------------------|


  PM PM       PM PM          PM PM       PM           
  E  E  E  E  E  E  E  E     E  E  E  E  E  E  E  E   
--2--2-----0-----0--4--5--|--L-----------L-----------|
--------------------------|--------------------------|
--------------------------|-----------0-----0--2--4--|
--------------------------|--------4-----------------|
-----0-----------2--------|-----4--------------------|
--0-----x-----2-----------|--4-----------4-----------|


  PM PM       PM PM          PM          PM           
  E  E  E  E  E  E  E  E     E  E  E  E  E  E  E  E   
--------------------------|-----------------0--0--0--|
--3--2-----0--------------|--------------------------|
-----------------0-----0--|--L-----------------------|
--------------------------|-----0-----0--------------|
-----0-----------2--------|--0-----------0-----------|
--0-----x-----2-----x-----|--------x-----------------|


  PM PM PM PM PM PM PM PM    PM PM PM PM PM PM PM PM  
  E  E  E  E  E  E  E  E     E  E  E  E  E  E  E  E   
--2--------4--------5-----|--4--------5--------7-----|
--3--------5--------7-----|--5--------7--------9-----|
--------------------------|--------------------------|
--------------------------|--------------------------|
--------------------------|--------------------------|
--0--0--0--0--0--0--0--0--|--0--0--0--0--0--0--0--0--|


  PM PM PM  PM PM PM  PM PM    PM PM PM PM PM PM PM PM  
  E  E  E   E  E  E   E  E     E  E  E  E  E  E  E  E   
--7---------9-----L\--0-----|--L--0--------------------|
--9--------10-----L\--2-----|--L-----3--2--0-----------|
----------------------------|-----------------0-----0--|
----------------------------|--------------------4-----|
--0--0--0---0--0--0---0--0--|--0--0--0--0--0--0--0--0--|
----------------------------|--------------------------|


  Play this bar the 2nd time                                                    
  PM                          PM PM PM  PM PM PM PM    PM PM PM PM PM PM PM PM  
  E                           E  E  E   E  E  E  E     E  E  E  E  E  E  E  E   
-----------------------------/5--4--0--/5--4--0-----|--2--------4--------5-----|
-------------------------------------------------0--|--3--------5--------7-----|
----------------------------------------------------|--------------------------|
----------------------------------------------------|--------------------------|
--0---------------------------0--0--0---0--0--0--0--|--------------------------|
----------------------------------------------------|--0--0--0--0--0--0--0--0--|


  PM PM PM PM PM PM PM PM    PM PM PM  PM PM PM  PM PM  
  E  E  E  E  E  E  E  E     E  E  E   E  E  E   E  E   
--4--------5--------7-----|--7---------9-----L\--0-----|
--5--------7--------9-----|--9--------10-----L\--2-----|
--------------------------|----------------------------|
--------------------------|----------------------------|
--------------------------|--0--0--0---0--0--0---0--0--|
--0--0--0--0--0--0--0--0--|----------------------------|


  PM PM PM PM PM PM PM PM    PM PM PM PM PM PM PM PM  
  E  E  E  E  E  E  E  E     E  E  E  E  E  E  E  E   
--L--------0--------------|--0-----------------------|
--L-----------------------|-----3-----3--L-----------|
--------0--------0--L-----|--------4-----------------|
-----4--------4-----------|--------------------------|
--0--0--0--0--0--0--0--0--|--------------------------|
--------------------------|--0--0--0--0--0--0--0--0--|


  PM PM PM PM PM PM PM PM    PM PM PM PM PM PM PM PM  
  E  E  E  E  E  E  E  E     E  E  E  E  E  E  E  E   
--0-----------------------|--0-----------------------|
-----3-----3--L-----------|-----3-----3--------------|
--------4-----------------|--------4--------4-----2--|
--------------------------|--------------------------|
--------------------------|--------------------------|
--2--2--2--2--2--2--2--2--|--4--4--4--4--4--4--4--4--|


  PM PM PM PM PM PM PM PM    PM PM PM PM PM PM PM PM  
  E  E  E  E  E  E  E  E     E  E  E  E  E  E  E  E   
-----------------0--------|--------------------------|
-----------------------0--|--3-----L--2--------------|
--L--0--------------------|-----------------0--------|
-----------4--------------|-----------------------3--|
--------------------------|--------------------------|
--4--4--4--4--4--4--4--4--|--5--5--5--5--5--5--5--5--|


  PM PM PM PM PM PM PM PM    PM PM PM PM PM    PM PM PM  
  E  E  E  E  E  E  E  E     E  E  E  E  S  S  E  E  E   
--------------------------|-----------------------------|
--------------------------|-----------------------------|
--------------0-----0-----|--L-----L-----2s-3s-2--0-----|
--L-----L--3--------------|-----------------------------|
--------------------------|--0--0--0--0--0-----0--0--0--|
--5--5--5--5--5--5--5--5--|-----------------------------|


  PM PM PM PM PM               PM PM       PM PM        
  E  E  E  E  E  E  E  E       E  E  E  E  E  E  E  E   
-----------------0--5--4---||--2--2-----0-----0--------|
---------------------------||-----------------------2--|
--L-----------------------*||--------------------------|
--------------------------*||--------------------------|
--0--0--0--0--0------------||-----0-----------2--------|
---------------------------||--0-----x-----2-----x-----|


  PM PM       PM             PM PM       PM PM        
  E  E  E  E  E  E  E  E     E  E  E  E  E  E  E  E   
--------------------------|-----------------------0--|
--L-----------L-----------|--3--2-----0--------------|
-----------0-----0--2--4--|-----------------0--------|
--------4-----------------|--------------------------|
-----4--------------------|-----0-----------2--------|
--4-----------4-----------|--0-----x-----2-----x-----|


  PM            PM             PM PM       PM PM        
  E  E  S  S E  E  E  E  E     E  E  E  E  E  E  E  E   
--L----------------0--5--4--|--2--2-----0-----0--4--5--|
--------0h-2----------------|--------------------------|
-------------0--------------|--------------------------|
-----0----------------------|--------------------------|
--0-------------0-----------|-----0-----------2--------|
----------------------------|--0-----x-----2-----------|


  PM PM       PM             PM PM       PM PM        
  E  E  E  E  E  E  E  E     E  E  E  E  E  E  E  E   
--L-----------L-----------|--------------------------|
--------------------------|--3--2-----0--------------|
-----------0-----0--2--4--|-----------------0-----0--|
--------4-----------------|--------------------------|
-----4--------------------|-----0-----------2--------|
--4-----------4-----------|--0-----x-----2-----x-----|


  PM          PM             PM PM       PM PM        
  E  E  E  E  E  E  E  E     E  E  E  E  E  E  E  E   
--------------------------|--------------------------|
--------------------------|--3--2-----0--------------|
-----------------0--2--4--|-----------------0-----0--|
-----0-----0--------------|--------------------------|
--0-----------0-----------|-----0-----------2--------|
--------x-----------------|--0-----x-----2-----x-----|


  PM PM    PM PM             PM PM       PM PM        
  E  E  E  E  E  E  E  E     E  E  E  E  E  E  E  E   
--------------------------|--------------------------|
--------------------------|--3--2-----0--------------|
--L-----------L--0--2--4--|-----------------0-----0--|
--------------------------|--------------------------|
-----4-----4--------------|-----0-----------2--------|
--4-----x-----4-----------|--0-----x-----2-----x-----|


  PM          PM                PM PM       PM PM        
  E  E  E  E  E  S  S  E  E     E  E  E  E  E  E  E  E   
-----------------------------|--------------------------|
-----------------------------|--------------------------|
--L-----------L--2s-4s-2--0--|--L-----L--0-----------0--|
-----0-----0-----------------|--------------------------|
--0-----------0--------------|-----0-----------2--------|
--------x--------------------|--0-----x-----2-----x-----|


    PM          PM                PM PM       PM PM          
    E  E  E  E  E  S  S  E  E     E  E  E  E  E  E  E  E   3x
|------------------------------|---------------------------||
|------------------3s-5s-3--2--|--L-----L--0---------------||
|*--L--------------2s-4s-2--0--|--L-----L--------0-----0--*||
|*-----0-----0-----------------|--------------------------*||
|---0-----------0--------------|-----0-----------2---------||
|---------x--------------------|--0-----x-----2-----x------||


  PM PM PM PM PM PM PM PM    PM PM PM PM PM PM PM PM  
  E  E  E  E  E  E  E  E     E  E  E  E  E  E  E  E   
--------------------------|--------------------------|
--------------0-----------|--------------0-----------|
--------0--------0-----0--|--------0--------0-----0--|
-----0-----0--------0-----|-----0-----0--------0-----|
--0-----------------------|--0-----------------------|
--------------------------|--------------------------|


  PM PM PM PM PM PM PM PM    PM PM PM PM PM PM PM PM   
  E  E  E  E  E  E  E  E     E  E  E  E  E  E  E  E    
--------------------------|--------------------------||
--------------0-----------|--------------0-----------||
--------0--------0-----0--|--------0--------0-----0--||
-----0-----0--------0-----|-----0-----0--------0-----||
--0-----------------------|--0-----------------------||
--------------------------|--------------------------||




Duration Legend
---------------
W - whole
H - half
Q - quarter
E - 8th
S - 16th
T - 32nd
X - 64th
. - note dotted
|-n-|  - n-tuplets


Tablature Legend
----------------
L - tied note
x - dead note
g - grace note
(n) - ghost note
> - accentuded note
NH - natural harmonic
AH - artificial harmonic
TH - tapped harmonic
SH - semi harmonic
PH - pitch harmonic
h - hammer on
p - pull off
b - bend
br - bendRelease
pb - preBend
pbr - preBendRelease
brb - bendReleaseBend
\n/ - tremolo bar dip
\n - tremolo bar dive
-/n - tremolo bar Release up
/n\ - tremolo bar inverted dip
/n - tremolo bar return
-\n - tremolo bar Release down
S - shift slide
s - legato slide
/ -  slide into from below or out of upwards
\ -  slide into from above or out of downwards
~ - vibrato
W - wide vibrato
tr - trill
TP - tremolo picking
T - tapping
S - slap
P - pop
< - fade in
^ - brush up
v - brush down

            
            
Suggest correction
Creating personal tab
Creating personal tab
You can edit any tab online and save it as your Personal.

You can edit, replace or remove any tab part or add personal notes – all changes will be seen only by you.

Personal tabs can be accessed anytime from any device, even offline.
Learn more »
Give kudos to tab author, rate the tab!
1 2 3 4 5
comments
print report bad tab
1 comment total.
0 reply
Royand 10 Feb 16, 2012 03:43 PM

Nice!!
Very good!

guest
You may want to rate the tab now too:
select rating
Wanna post a correction for this tab? Suggest correction