Oops, an error
Loading. Please wait.

Winter tab

version 1
version 1

Whole song

  • Cleaned up certain errors, while filling in unwant... Show more

Interactive

52 views 1 this week
no commentswrite comment
1 2 3 4 5
3 more votes to show rating
add to favorites
×
Save as Personal and add changes to this tab that will be seen only by you. Learn more ›
×
You can save this tab as Personal to edit and correct it or add notes. All changes will be seen only by you. Learn more »
launch autoscroll
font size
0
reset
how to read this tab
guitar tuner
edit
Autoscroll
slow
fast
+/-
esc
set tempo
stop
About this tab version
Cleaned up certain errors, while filling in unwanted whole rests that (intends) you repeat the verse [A1], [A2] and [A3]. Some parts may seem copy and pasted, albiet the rest has been thoroughly checked and corrected to match the overall quality of the song it self as well as the YouTube video. Hope you enjoy. Was this info helpful? Yes No
Based off of Yosuke Jinnouchi's performance,
   https://www.youtube.com/watch?v=toC2bDZfsog
as well as bluesky2412's tab for double-checking (Available only on Tab Pro/Guitar Pro):
   https://plus.ultimate-guitar.com/m/masaaki_kishibe/winter_tab_online.html#15d921

--------------------------------------------
Song: Winter
Artist: Masaaki Kishibe
Tuning: Dsus4/Celtic Tuning (DADGAD)
Capo: 2nd fret
BPM: Adantino (80~108 bpm) - Allegro (120~168 bpm)
Time Signature: 3/4
--------------------------------------------------

 [Intro] Q=80~108
                               ^
   E E E E E E   E E  Q  Q     E E E E E E   E E E E  Q
D|---------0-2-|-0-----------|-------------|----------------|
A|-3-----3-----|---------2---|-3-----3---0-|----------3-----|
G|-4---4-------|------0------|-2---2---4---|-0-----0--------|
D|---2---------|---0---------|---3---------|---0h2----------|
A|-0-----------|-------------|-------------|-3--------------|
D|-------------|-5-----------|-3-----------|----------------|


                               ^        ^
   E E E E E E   Q  E E  Q     E E  Q   Q    H.
D|-----------5-|-2----0------|-0-----------|-0--------------|
A|-3/5---3-----|---------3---|---3------2--|----------------|
G|---------4---|-------------|-2----2---1--|----------------|
D|-----0-------|----2--------|-------------|----------------|
A|-------------|-0-----------|-------------|----------------|
D|-0-----------|-------------|-3--------2--|----------------|


  [A1] Q=120~168
     E E E E E E   E E E E  Q    Q  Q  E E   E E E E  Q
D||------------0-|-------------|-----------|----------------|
A||------3---3---|-2-----0-----|-0---------|----------------|
G||*-2h4---4-----|-----0----0--|-------0---|----------0-----|
D||*-------------|---0---------|---------3-|-2p0h2h3--------|
A||--0-----------|-------------|----3------|-3--------------|
D||--------------|-5-----------|-3---------|----------------|


                                              ^
    Q   Q   Q     Q   Q   Q    Q   Q   E E    Q.   E  Q
D|-------------|-------------|---------0---|----------------|
A|-------------|------0---3--|-2---------3-|--3----2--------|
G|-------------|-------------|-----2-------|--1-------------|
D|--0---2---3--|--2----------|-------------|----------0-----|
A|--2----------|--0----------|-------------|----------------|
D|-------------|-------------|-3-----------|--2-------------|



  E E E E E E   E E E E  Q     Q  E E  Q    Q   Q   Q
D|-----------0-|-------------|-------------|----------------|
A|-----3---3---|-2-----0-----|--0----------|---------3------|
G|-2h4---4-----|-----0----0--|-------0-----|-----0----------|
D|-------------|---0---------|----------3--|-2--------------|
A|-0-----------|-------------|-----3-------|-3--------------|
D|-------------|-5-----------|--3----------|----------------|


                                      ^
   E E E E E E    Q  E E  Q    E E E  Q  E    Q  E E E E
D|-----------5-|--2----0-----|-0---------0--|---------------|
A|-3/5---3-----|----------3--|---3----2-----|-0------3------|
G|---------4---|-------------|-----2--1-----|------0---0----|
D|-----0-------|-----2-------|--------------|----2----------|
A|-------------|--0----------|--------------|-0-------------|
D|-0-----------|-------------|-3------2-----|---------------|

                                             [B2]
                             1._____________ 2.____________
    Q  E E E E    Q  E E E E   H.              Q  E E E E
D|-------------|-------------|--------------||--------------|
A|--0------3---|--0------3---|-0------------||-0------------|
G|-------0---0-|-------0---0-|-------------*||------0-------|
D|-----2-------|-----2-------|-------------*||----2---------|
A|--0----------|--0----------|-0------------||-0------0-2---|
D|-------------|-------------|--------------||--------------|



   E E E E E E    Q  E E E E   E E E E E E    Q  E E E E
D|---------0-2-|--0----------|---------0-2-|----------------|
A|-------3-----|---------2---|-3-----3-----|--0--------0----|
G|-----0-------|-------0---0-|-----0-------|---------0------|
D|---2---------|-----0-------|---2---------|-------3--------|
A|-3-----------|--2----------|-0-----------|-----3----------|
D|-------------|-------------|-------------|--3-------------|


                  ^
   E E E E  Q     Q   Q   Q     Q  E E E E   E E E E E E  
D|-------------|-------------|--0--------0-|---------0------|
A|----------3--|------2------|---------3---|-2---3----------|
G|-------0-----|--5-------5--|--4----4-----|---0---0---0----|
D|---0h2-------|--4----------|-----0-------|----------------|
A|-3-----------|-------------|-------------|-----0---2------|
D|-------------|--0----------|--5----------|-5--------------|



   E E E E E E    Q  E E E E   E E E E E E   E E E E E E  
D|-2-----0-2---|--0----------|---------0-2-|-3p2------------|
A|-----3-------|---------2---|-3-----3-----|-------0--------|
G|---0-------0-|-------0---0-|-----0-------|-----5---0------|
D|-------------|-----0-------|---2---------|-----------3----|
A|-3-----------|--2----------|-0-----------|----------------|
D|-------------|-------------|-------------|-3--------------|


                  ^             ^             ^
   Q   Q   Q      Q   Q   Q     Q   Q   Q     Q   Q   Q       +H.
D|-------------|--0----------|-------------|----------0-----|-(0)---------|
A|---------3---|------3------|--3----------|--2-------------|-------------|
G|-----0-------|--4-------4--|--0-------0--|--1-------------|-------------|
D|-2-----------|-------------|------2------|------0---------|-------------|
A|-3-----------|-------------|--3----------|----------------|-------------|
D|-------------|--5----------|-------------|--2-------------|-------------|


 [A2]
   E E E E E E   E E E E  Q    Q   Q   E E   E E E E  Q
D|-----------0-|-------------|-------------|----------------|
A|-----3---3---|-2-----0-----|-0-----------|----------------|
G|-2h4---4-----|-----0----0--|---------0---|----------0-----|
D|-------------|---0---------|-----------3-|-2p0h2h3--------|
A|-0-----------|-------------|-----3-------|-3--------------|
D|-------------|-5-----------|-3-----------|----------------|


                                              ^
    Q   Q   Q     Q   Q   Q    Q   Q   E E    Q.    E  Q
D|-------------|-------------|---------0---|----------------|
A|-------------|------0---3--|-2---------3-|--3-----2-------|
G|-------------|-------------|-----2-------|--1-------------|
D|--0---2---3--|--2----------|-------------|-----------0----|
A|--2----------|--0----------|-------------|----------------|
D|-------------|-------------|-3-----------|--2-------------|



   E E E E E E   E E E E  Q     Q  E E  Q     Q   Q   Q
D|-----------0-|-------------|-------------|----------------|
A|-----3---3---|-2-----0-----|--0----------|----------3-----|
G|-2h4---4-----|-----0----0--|-------0-----|------0---------|
D|-------------|---0---------|----------3--|--2-------------|
A|-0-----------|-------------|-----3-------|--3-------------|
D|-------------|-5-----------|--3----------|----------------|


                                      ^
   E E E E E E    Q  E E  Q    E E E  Q  E   Q  E E E E
D|-----------5-|--2----0-----|-0---------0-|----------------|
A|-3/5---3-----|----------3--|---3----2----|-0------3-------|
G|---------4---|-------------|-----2--1----|------0---0-----|
D|-----0-------|-----2-------|-------------|----2-----------|
A|-------------|--0----------|-------------|-0--------------|
D|-0-----------|-------------|-3------2----|----------------|


                                            [C2]
    Q  E E E E    Q  E E E E   H    Q          E E E E E E
D|-------------|-------------|------2------||--2------------|
A|--0------3---|--0------3---|-0-----------||----3p0---0h3--|
G|-------0---0-|-------0---0-|-------------||*-------0------|
D|-----2-------|-----2-------|-------------||*---------3----|
A|--0----------|--0----------|-0-----------||---------------|
D|-------------|-------------|-------------||--3------------|



   E E E E E E   E E E E E E   E E E E  Q      E E E E E E
D|-2-----------|-2-----------|-2-----3--5--|-0--------------|
A|---3p0---0h3-|---3p0---0h3-|---0---------|---2p0---0h2----|
G|-------0-----|-------0-----|-----5-------|-------0--------|
D|---------3---|---------3---|-------------|---------2------|
A|-------------|-------------|-------------|----------------|
D|-3-----------|-3-----------|-3-----4-----|-2--------------|

                                             
                             1.&2._________  3._____________
   E E E E E E   E E E E E E   E E E E E E  3x E E E E E E
D|-0-----------|-0-----------|-0------------||-0------------|
A|---2p0---0h2-|---2p0---0h2-|---3---0---3--||---2p0---0h2--|
G|-------0-----|-------0-----|-----4---4---*||-------0------|
D|---------2---|---------2---|-------------*||---------2----|
A|-------------|-------------|--------------||--------------|
D|-2-----------|-2-----------|-2------------||-2------------|



   E E E E E E   E E E E E E   E E E E E E   E E E E E E
D|-0-----------|-0-----------|-0-----------|-0--------------|
A|---1p0---0h1-|---1p0---0h1-|---1p0---0h1-|---1p0---0h1----|
G|-------0-----|-------0-----|-------0-----|-------0--------|
D|---------1---|---------1---|---------1---|---------1------|
A|-------------|-------------|-------------|----------------|
D|-1-----------|-1-----------|-1-----------|-1--------------|


                               |-3-| |-3-| |-3-| |-3-| |-3-|   ^
   E E E E E E   E E E E E E   S S S S S S S S S S S S E E E   H.
D|-0-----------|-------------|---------------------------0-1-|-0----------|
A|---3---0-----|-------------|---------------------0---3-----|-0----------|
G|-----3---0---|-------------|-------------------0---3-------|------------|
D|-----------4-|---0---------|-------------0-1h4-------------|-4----------|
A|-------------|-6---3-1-0---|-------0-1h3-------------------|------------|
D|-0-----------|-----------5-|-0-4h5-------------------------|-0----------|


 [D2] Q=86
    ^             ^            ^              ^
    E E E E Q     Q   E E Q    E E E E E E    E E E E E E
D|--0-------0--|--0----------|-0-------0-3-|--2-------0-2---|
A|----3---3----|--------0----|---3---3-----|--------4-------|
G|--4---4------|--2-------2--|-0---4-------|--0---0---------|
D|-------------|------0------|-------------|----2-----------|
A|-------------|-------------|-------------|--0-------------|
D|--5----------|--4----------|-3-----------|----------------|


                                              ^
   E E E E E E   E E E E  Q    E E E E E E    E E  Q  Q
D|-3p2p0-------|----------0--|-2-----0-2---|--0-------------|
A|-------3---0-|-2-----3-----|-----3-------|----------2-----|
G|---------4---|-----0-------|---0-------0-|--1----1--------|
D|-0-----------|---0---------|-------------|----2-----------|
A|-------------|-------------|-3-----------|----------------|
D|-0-----------|-5-----------|-------------|--2-------------|


 [A3] Q=136
   E E E E E E   E E E E  Q     Q  Q  E E    E E E E Q
D|-----------0-|-------------|-------------|----------------|
A|-----3---3---|-2-----0-----|--0----------|----------------|
G|-2h4---4-----|-----0----0--|--------0----|---------0------|
D|-------------|---0---------|----------3--|-2p0h2h3--------|
A|-0-----------|-------------|-----3-------|-3--------------|
D|-------------|-5-----------|--3----------|----------------|

                                              ^
    Q   Q   Q     Q   Q   Q     Q   Q  E E    Q.     E Q
D|-------------|-------------|---------0---|----------------|
A|-------------|------0---3--|--2--------3-|--3------2------|
G|-------------|-------------|------2------|--1-------------|
D|--0---2---3--|--2----------|-------------|-----------0----|
A|--2----------|--0----------|-------------|----------------|
D|-------------|-------------|--3----------|--2-------------|



   E E E E E E   E E E E  Q     Q  E E  Q     Q   Q   Q
D|-----------0-|-------------|-------------|----------------|
A|-----3---3---|-2-----0-----|--0----------|----------3-----|
G|-2h4---4-----|-----0----0--|-------0-----|------0---------|
D|-------------|---0---------|----------3--|--2-------------|
A|-0-----------|-------------|-----3-------|--3-------------|
D|-------------|-5-----------|--3----------|----------------|


                                      ^
   E E E E E E    Q  E E  Q    E E E  Q  E    Q  E E E E
D|-----------5-|--2----0-----|-0---------0-|----------------|
A|-3/5---3-----|----------3--|---3----2----|--0------3------|
G|---------4---|-------------|-----2--1----|-------0---0----|
D|-----0-------|-----2-------|-------------|-----2----------|
A|-------------|--0----------|-------------|--0-------------|
D|-0-----------|-------------|-3------2----|----------------|

                                           [B2]
    Q  E E E E    Q  E E E E    Q  E E E E   E E E E E E
D|-------------|-------------|-------------|---------0-2----|
A|--0------3---|--0------3---|--0----------|-------3--------|
G|-------0---0-|-------0---0-|-------0-----|-----0----------|
D|-----2-------|-----2-------|-----2-------|---2------------|
A|--0----------|--0----------|--0------0-2-|-3--------------|
D|-------------|-------------|-------------|----------------|


    Q  E E E E   E E E E E E    Q  E E E E   E E E E  Q
D|--0----------|---------0-2-|-------------|----------------|
A|---------2---|-3-----3-----|--0--------0-|----------3-----|
G|-------0---0-|-----0-------|---------0---|-------0--------|
D|-----0-------|---2---------|-------3-----|---0h2----------|
A|--2----------|-0-----------|-----3-------|-3--------------|
D|-------------|-------------|--3----------|----------------|

    ^             ^
    Q   Q   Q     Q  E E E E   E E E E E E   E E E E E E       Q  E E E E
D|-------------|--0--------0-|---------0---|-2-----0-2------|--0-------------|
A|------2------|---------3---|-2---3-------|-----3----------|---------2------|
G|--5-------5--|--4----4-----|---0---0---0-|---0-------0----|-------0---0----|
D|--4----------|-----0-------|-------------|----------------|-----0----------|
A|-------------|-------------|-----0---2---|-3--------------|--2-------------|
D|--0----------|--5----------|-5-----------|----------------|----------------|

                                              ^
   E E E E E E   E E E E E E    Q   Q   Q     Q   Q   Q
D|---------0-2-|-3p2---------|-------------|--0-------------|
A|-3-----3-----|-------0-----|----------3--|------3---------|
G|-----0-------|-----5---0---|------0------|--4-------4-----|
D|---2---------|-----------3-|--2----------|----------------|
A|-0-----------|-------------|--3----------|----------------|
D|-------------|-3-----------|-------------|--5-------------|

  [Ending]
     E E E E E E   E E E E E E   E E E E E E   E E E E E E  5x
D||--5-------5---|-5-------5---|-5-------5---|-5-------5----||
A||--------3-----|-------3-----|-------3-----|-------3------||
G||*-----4-----4-|-----4-----4-|-----4-----4-|-----4-----4-*||
D||*---2---------|---2---------|---2---------|---2---------*||
A||--0-----------|-0-----------|-0-----------|-0------------||
D||--------------|-------------|-------------|--------------||


   E E E E E E   E E E E E E   E E E E E E   E E E E E E
D|-5-------5---|-5-------5---|-5-------5---|-5-------5------|
A|-------3-----|-------3-----|-------3-----|-------3--------|
G|-----4-----4-|-----4-----4-|-----4-----4-|-----4-----4----|
D|---2---------|---2---------|---2---------|---2------------|
A|-0-----------|-0-----------|-0-----------|-0--------------|
D|-------------|-------------|-------------|----------------|


   H.             H.
D|-------------|-------------||
A|-0-----------|-(0)---------||
G|-------------|-------------||
D|-2-----------|--2----------||
A|-0-----------|--0----------||
D|-------------|-------------||

Duration legend
---------------
W - whole
H - half
Q - quarter
E - 8th
S - 16th
T - 32nd
. - note dotted


Tablature Legend
----------------
h - hammer on
p - pull off
/ -  slide into from below or out of upwards
\ -  slide into from above or out of downwards
^ - brush up
v - brush down

            
            
Suggest correction
Creating personal tab
Creating personal tab
You can edit any tab online and save it as your Personal.

You can edit, replace or remove any tab part or add personal notes – all changes will be seen only by you.

Personal tabs can be accessed anytime from any device, even offline.
Learn more »
Give kudos to tab author, rate the tab!
1 2 3 4 5
comments
print report bad tab
guest
You may want to rate the tab now too:
select rating
Wanna post a correction for this tab? Suggest correction