Oops, an error
Loading. Please wait.

Key Station bass

73 views 3 this week
no commentswrite comment
1 2 3 4 5
3 more votes to show rating
add to favorites
×
Save as Personal and add changes to this tab that will be seen only by you. Learn more ›
×
You can save this tab as Personal to edit and correct it or add notes. All changes will be seen only by you. Learn more »
launch autoscroll
font size
0
reset
guitar tuner
edit
Autoscroll
slow
fast
+/-
esc
set tempo
stop
Author
Difficulty
[Intro]
G|----------|-----------|----------|-------------|----------|---------|
D|----------|-3---------|----------|-----7/9---7-|----------|-.-------|
A|----------|-----5---2-|----------|-5-----------|----------|-7-------|
E|-5---5----|-----------|-5---5----|-------------|-7---7----|---------|

[Verse 1]
G|-------------|-------------|-------------|-------------|
D|-------------|-------------|-----7/9---7-|-----7/9---7-|
A|-----7/9---7-|-----7/9---7-|-5-----------|-5-----------|
E|-5-----------|-5-----------|-------------|-------------|

G|----------|-----------|-------------|-------------|
D|-----6----|-4---4-----|-----4/9-----|-------------|
A|-4--------|---------4-|-2---------9-|-7---9--7---7|
E|----------|-----------|-------------|----------9--|

G|-------------|-------------|-------------|-------------|
D|-------------|-------------|-----7/9---7-|-----7/9---7-|
A|-----7/9---7-|-----7/9---7-|-5-----------|-5-----------|
E|-5-----------|-5-----------|-------------|-------------|

G|----------|-----------|------------|-------.-----|
D|-----6----|-4---4-----|-------2---2|-------2-----|
A|-4--------|---------4-|-2---2------|--.----------|
E|----------|-----------|------------|--1-1----0--0|

[Pre-Chorus]
G|--------------------|---------------------------|----------------|---------------------|
D|--------------------|----------------7/9-(7-----|----------------|------------------4--|
A|--------------------|-----------------------9-7)|----------------|----------------4----|
E|-(5-5)---(5-5)---0-2|-(5-5)---(5-5)-------------|-2---(2-2)---0-1|-(2-2)---(2-2)------2|

G|--------------------|----------------4/6\4--|------------------------|----------------|
D|--------------------|----------------------4|-(2-2)---(2-2)---------2|----------------|
A|-(2-2)---(2-2)-----0|-(2-2)---(2-2)---------|-----------------(x-4)--|----------------|
E|-----------------2--|-----------------------|------------------------|-0-0-0-0-0-2-5-2|

[Chorus]
G|-------------------|-------------------|-------------------|-------------------|
D|-------------------|-------------------|-------------------|-------------------|
A|-2-----2-------2)--|-------------------|-2-----2-------2)--|-------------------|
E|---2-5----(2-2----2|-5-0-2-5--(2-2-0)-2|---2-5----(2-2----2|-5-0-2-5--(2-2-0)-5|

G|-------------------|-------------------|-----4------------------------|
D|-------------------|-------------------|--------(4----4-3-2---4--2---2|
A|-5---2-5-------5)--|-4---2-4-------4)--|-2---------2)--------------4--|
E|---5------(5-5----5|---4------(4-4----4|------------------------------|

G|-------------------|-------------------|-------------------|-------------------|
D|-------------------|-------------------|-------------------|-------------------|
A|-2-----2-------2)--|-------------------|-2-----2-------2)--|-------------------|
E|---2-5----(2-2----2|-5-0-2-5--(2-2-0)-2|---2-5----(2-2----2|-5-0-2-5--(2-2-0)-5|

G|-----------------------|---------|
D|-------4---------------|---------|
A|-2--4------2----4--5--6|---------|
E|-----------------------|-0-------|

[Interlude]
G|----------------|----------------|----------------|---------|
D|----------------|----------------|----------------|-.-------|
A|----------------|----------------|----------------|-7-------|
E|-5-0-7-0-5-0-7-0|-5-0-7-0-5-0-7-0|-5-0-7-0-5-0-7-0|---------|

[Verse 2]
G|-------------|-------------|-------------|-------------|
D|-------------|-------------|-----7/9---7-|-----7/9---7-|
A|-----7/9---7-|-----7/9---7-|-5-----------|-5-----------|
E|-5-----------|-5-----------|-------------|-------------|

G|----------|-----------|-------------|-------------|
D|-----6----|-4---4-----|-----4/9-----|-------------|
A|-4--------|---------4-|-2---------9-|-7---9--7---7|
E|----------|-----------|-------------|----------9--|

G|-------------|-------------|-------------|-------------|
D|-------------|-------------|-----7/9---7-|-----7/9---7-|
A|-----7/9---7-|-----7/9---7-|-5-----------|-5-----------|
E|-5-----------|-5-----------|-------------|-------------|

G|----------|-----------|------------|-------.-----|
D|-----6----|-4---4-----|-------2---2|-------2-----|
A|-4--------|---------4-|-2---2------|--.----------|
E|----------|-----------|------------|--1-1----0--0|

[Pre-Chorus]
G|--------------------|---------------------------|----------------|---------------------|
D|--------------------|----------------7/9-(7-----|----------------|------------------4--|
A|--------------------|-----------------------9-7)|----------------|----------------4----|
E|-(5-5)---(5-5)---0-2|-(5-5)---(5-5)-------------|-2---(2-2)---0-1|-(2-2)---(2-2)------2|

G|--------------------|----------------4/6\4--|------------------------|----------------|
D|--------------------|----------------------4|-(2-2)---(2-2)---------2|----------------|
A|-(2-2)---(2-2)-----0|-(2-2)---(2-2)---------|-----------------(x-4)--|----------------|
E|-----------------2--|-----------------------|------------------------|-0-0-0-0-0-2-5-2|

[Chorus]
G|-------------------|-------------------|-------------------|-------------------|
D|-------------------|-------------------|-------------------|-------------------|
A|-2-----2-------2)--|-------------------|-2-----2-------2)--|-------------------|
E|---2-5----(2-2----2|-5-0-2-5--(2-2-0)-2|---2-5----(2-2----2|-5-0-2-5--(2-2-0)-5|

G|-------------------|-------------------|---(4-4-----------------|--------------|
D|-------------------|-------------------|--------4)-(4-4----4---4|-2---2-2-2---2|
A|-5---2-5-------5)--|-4---2-4-------4)--|-2--------------5)---2--|-----------4--|
E|---5------(5-5----5|---4------(4-4----4|------------------------|--------------|
                                                                 
G|-------------------|-------------------|-------------------|---5/6-6--------------|
D|-------------------|-------------------|-------------------|---------7------------|
A|-2-----2-------2)--|-------------------|-2-----2-------2)--|-----------(7-7-4)-0--|
E|---2-5----(2-2----2|-5-0-2-5--(2-2-0)-2|---2-5----(2-2----2|-5-------------------2|

G|-----------------------|---------|
D|-------4---------------|---------|
A|-2--4------2----4--5--6|---------|
E|-----------------------|-0-------|

[Interlude]
G|----------|-----------|----------|-------------|----------|-------.-----|
D|----------|-3---------|----------|-----7/9---7-|----------|-------2-----|
A|----------|-----5---2-|----------|-5-----------|----------|--.----------|
E|-5---5----|-----------|-5---5----|-------------|-7---7----|--1-1----0--0|

[Pre-Chorus]
G|--------------------|---------------------------|--------------------|---------------------|
D|--------------------|----------------7/9-(7-----|--------------------|------------------4--|
A|--------------------|-----------------------9-7)|--------------------|----------------4----|
E|-(5-5)---(5-5)---0-2|-(5-5)---(5-5)-------------|-(2-2)---(2-2)---0-1|-(2-2)---(2-2)------2|

G|--------------------|----------------4/6\4---|------------------------|----------------|
D|--------------------|----------------------4)|-(2-2)---(2-2)---------2|----------------|
A|-(2-2)---(2-2)-----0|-(2-2)---(2-2)----------|-----------------(x-4)--|----------------|
E|-----------------2--|------------------------|------------------------|-0-0-0-0-0-2-5-2|

[Chorus]
G|-------------------|-------------------|-------------------|-------------------|
D|-------------------|-------------------|-------------------|-------------------|
A|-2-----2-------2)--|-------------------|-2-----2-------2)--|-------------------|
E|---2-5----(2-2----2|-5-0-2-5--(2-2-0)-2|---2-5----(2-2----2|-5-0-2-5--(2-2-0)-5|

G|-----------------------|-----------------|
D|-------4---------------|-----------------|
A|-2--4------2----4--5--6|-----------------|
E|-----------------------|-0---------------|

[Outro]
G|-------------------|-------------------|-------------------|------------------------|
D|-------------------|-------------------|-------------------|---(7-7----(7-----------|
A|-2-----2-------2)--|-------------------|-2-----2-------2)--|--------7)----7-4)-7-0--|
E|---2-5----(2-2----2|-5-0-2-5--(2-2-0)-2|---2-5----(2-2----2|-5---------------------2|

G|-------------------|-------------------|-------------------|------------------------------|
D|-------------------|-------------------|-------------------|-4/7---(7------(4-2)---(2-----|
A|-2-----2-------2)--|-------------------|-2-----2-------2)--|----------4)--------------0)--|
E|---2-5----(2-2----2|-5-0-2-5--(2-2-0)-2|---2-5----(2-2----2|-----------------------------2|

G|-------------------|-------------------|-------------------|---5/6-5/6----------------|
D|-------------------|-------------------|-------------------|-----------6/7------------|
A|-2-----2-------2)--|-------------------|-2-----2-------2)--|---------------6/7-6/7-4-0|
E|---2-5----(2-2----2|-5-0-2-5--(2-2-0)-2|---2-5----(2-2----2|-5------------------------|

G|-------------------|-------------------|-------------------|-----------------------|
D|-------------------|-------------------|-------------------|-------------------7-7\|
A|-2-----2-------2)--|-------------------|-2-----2-------2)--|----(4-4)--(9-7)-7-----|
E|---2-5----(2-2----2|-5-0-2-5--(2-2-0)-2|---2-5----(2-2----2|-5---------------------|
                                                   (fade out)
G|-------------------|-------------------|-------------------|
D|-------------------|-------------------|-------------------|
A|-2-----2-------2)--|-------------------|-2-----2-------2)--|
E|---2-5----(2-2----2|-5-0-2-5--(2-2-0)-2|---2-5----(2-2----2|


***********************************

| / Slide up
| \ Slide down
| . Staccato
| x Dead note
| (n-n) Fast

***********************************

            
            
Suggest correction
Creating personal tab
Creating personal tab
You can edit any tab online and save it as your Personal.

You can edit, replace or remove any tab part or add personal notes – all changes will be seen only by you.

Personal tabs can be accessed anytime from any device, even offline.
Learn more »
Give kudos to tab author, rate the tab!
1 2 3 4 5
comments
print report bad tab
guest
You may want to rate the tab now too:
select rating
Wanna post a correction for this tab? Suggest correction