Oops, an error
Loading. Please wait.

Sonic The Hedgehog Marble Run bass

991 views 1 this week
no commentswrite comment
1 2 3 4 5
3 more votes to show rating
add to favorites
×
Save as Personal and add changes to this tab that will be seen only by you. Learn more ›
×
You can save this tab as Personal to edit and correct it or add notes. All changes will be seen only by you. Learn more »
launch autoscroll
font size
0
reset
guitar tuner
edit
Autoscroll
slow
fast
+/-
esc
set tempo
stop
Difficulty
intermediate
Original Composer: Masato Nakamura
Transcribed by Moosh

I cant get enough of Sonic, ok its really old now and hardly a challenge any more, so what?

I love the music Masato Nakamura put to both Sonic 1 and 2, Sonic 1 is one of my 
out of the Sonic series on the Mega Drive. But sonic 2 is my favourite for music.

It took me a while to figure out coz i wanted to play the above melody ontop of the bass 
will write out guitar for that soon.

Hope you enjoy


 |        intro           |  main part (on repeat)
G|-------------14-16-17-21|------------------------|
D|------------------------|-------14-14-12-12-14-14|
A|-7--7--7--7-------------|-12-12------------------|
E|----------0-------------|------------------------|


G|------------------------|-------14-14-------14-14|
D|-------14-14-12-12-14-14|-12-12-------15-15------|
A|-12-12------------------|------------------------|
E|------------------------|------------------------|


G|-------14-14-------14-14|------------------------|
D|-12-12-------15-15------|-------12-12--9--9-12-12|
A|------------------------|-10-10------------------|
E|------------------------|------------------------|


G|------------------------|-------12-12--9--9-12-12|
D|-------12-12--9--9-12-12|-10-10------------------|
A|-10-10------------------|------------------------|
E|------------------------|------------------------|

                          |     main part again    |
G|-------------14-16-17-21|------------------------|
D|------------------------|-------14-14-12-12-14-14|
A|-------14-14------------|-12-12------------------|
E|-12-12------------------|------------------------|


G|------------------------|-------14-14-------14-14|
D|-------14-14-12-12-14-14|-12-12-------15-15------|
A|-12-12------------------|------------------------|
E|------------------------|------------------------|


G|-------14-14-------14-14|------------------------|
D|-12-12-------15-15------|-------12-12--9--9-12-12|
A|------------------------|-10-10------------------|
E|------------------------|------------------------|

  slightly different
G|------------------------|-------12-12--9--9-12-12|
D|------------------------|-10-10------------------|
A|-------14-14-11-11-14-14|------------------------|
E|-12-12------------------|------------------------|

                           hope you have good finger skills
G|-------12-12--9--9-12-12|-14-------14-12-------12|
D|-10-10------------------|----14----------12--9---|
A|------------------------|-12----15-12-10-------10|
E|------------------------|------------------------|


G|-10-------10-12-------12|-14-------14-12-------12|
D|----10--7-------12--9---|----14----------12--9---|
A|--8--------8-10-------10|-12----15-12-10-------10|
E|------------------------|------------------------|


G|-10-------10-14-16-17-21|
D|----10--7---------------|  then repeat from begining without
A|--8--------8------------|  the intro and loop continuously until
E|------------------------|  you get bored :).


good luck and hope this isnt too complicated

            
            
Suggest correction
Creating personal tab
Creating personal tab
You can edit any tab online and save it as your Personal.

You can edit, replace or remove any tab part or add personal notes – all changes will be seen only by you.

Personal tabs can be accessed anytime from any device, even offline.
Learn more »
Give kudos to tab author, rate the tab!
1 2 3 4 5
comments
print report bad tab
guest
Wanna post a correction for this tab? Suggest correction