Oops, an error
Loading. Please wait.

Heart Shaped Guitar chords

version 1
version 1

Whole song

Interactive

10,078 views 33 this week
2 commentsread comments
1 2 3 4 5
x 10
add to favorites
×
Save as Personal and add changes to this tab that will be seen only by you. Learn more ›
×
You can save this tab as Personal to edit and correct it or add notes. All changes will be seen only by you. Learn more »
launch autoscroll
font size
0
reset
transpose
0
reset
display chords
guitar tuner
edit
Autoscroll
slow
fast
+/-
esc
set tempo
stop
Author
Strumming
There is no strumming pattern for this song yet. and get +5 IQ
G         D
Girl, ever since I
                 C
first saw you I knew
             Em      D
you were the one for me.
G                   D
I just want you to know
       C
how I feel,
                 Em      D
that's why I'm standing here

    C
at 3am
         G          
out in your front yard
                    C
singing you a love song
      Em            D
on a Heart Shaped Guitar.
       C
And I hope you hear me,
       G
and I hope you care,
        Em
and you put on a smile,
         D
and you come down stairs.

G                         D
Dude, you're freaking me out,
        C
seriously.
          Em                 D
What the fuck is wrong with you?
G                  D
I don't even know you.
                 C
I'm calling the cops.
Em                     D
Why are you standing there

    C
at 3am
       G
out in my front yard
        C
singing stupid love songs
      Em            D
on a Heart Shaped Guitar?
        C
And I don't wanna hear it
         G
cause I don't even care.
      Em
The police are on their way,
         D
so just stay right there.

(The next part is two people the same singing at different times, use the same chords from above)

Girl / Dude
ever since I / You're freaking me out
First saw you I knew / Seriously
You were the one for me. I / Don't even know you
Just want you to know / I'm calling the cops
How I feel / What are you doing
That's why I'm standing here.

at 3am
out in your / my front yard
singing you a love song / singing stupid love songs
on a Heart Shaped Guitar.
And I hope you hear me,
and I hope you care / The police are on their way,
so just stay right there.

G              D
I love you. / Get real dude.
Em            C   
I need you / You need mental help.
G                    D                    
I'll do anything. / Stay away from me.
Em            C           G
I need your love. 

            
            
Suggest correction
Creating personal tab
Creating personal tab
You can edit any tab online and save it as your Personal.

You can edit, replace or remove any tab part or add personal notes – all changes will be seen only by you.

Personal tabs can be accessed anytime from any device, even offline.
Learn more »
comments
print report bad tab
2 comments total.
0 reply
Bloodlvst 62 Aug 18, 2013 06:05 AM

AWESOME tab. I worked this out myself but it was always a little off. But this is perfect!

+1 reply
Nofootcanman 30 Sep 19, 2013 09:16 AM

e|---------------------------------------------------------------------------|
B|---------------------------------------------------------12-10----10-------|
G|9-11-12~12-11-9--------------------------9-11-12-12-11-9-------12----------|
D|----------------12-10-9h10p9---9h12p9h12-----------------------------------|
A|---------------------------------------------------------------------------|
E|---------------------------------------------------------------------------|

e|--------------------------------10-----------------------------------------|
B|----------------------------12b----12-10----10-----------------------------|
G|-9h12p9h12-9-11-12~12-11-9---------------12--------------------------------|
D|---------------------------------------------------------------------------|
A|---------------------------------------------------------------------------|
E|---------------------------------------------------------------------------|

First half of the solo, then just mess around in D Mixolydian

guest
You may want to rate the tab now too:
select rating
Wanna post a correction for this tab? Suggest correction