Oops, an error
Loading. Please wait.

Stick Em Up tab

version 1
version 1

Whole song

3,571 views 9 this week
3 commentsread comments
1 2 3 4 5
x 7
add to favorites
×
Save as Personal and add changes to this tab that will be seen only by you. Learn more ›
×
You can save this tab as Personal to edit and correct it or add notes. All changes will be seen only by you. Learn more »
launch autoscroll
font size
0
reset
how to read this tab
guitar tuner
edit
Autoscroll
slow
fast
+/-
esc
set tempo
stop
-----------------------------------------------------------------
Stick 'Em Up - Masked Intruder (Site: http://www.fatwreck.com/band/index/106)
-----------------------------------------------------------------
Tabbed by: Ethan McQuade
Email: ethanmcquade@gmail.com
Tuning: Standard!

Alright, so this is my first tab, so I apologize if it's not really up to snuff. This
whole song is powerchords, so it shouldn't be that wretched. I'm also not putting the
strumming, because if you're familiar with the song at all it's really easy to figure 
out. The only part -not- in here is the mini-solo at the very end of the song. I'm not that
awesome, sorry. :/ Other than that. this is an extremely easy song that's fun to jam 
around to. If you're like me you'll use the simplicity as a chance to move around and have 
some fun!

Verse:
e|---------------------------------------------------------------|
B|---------------------------------------------------------------|
G|---------------------------------------------------------------|
D|---7---7---7-/-9~~~--------------------------------------------|
A|---7---7---7-/-9~~~-(Only ring out the last chord each verse.)-|
E|---5---5---5-/-7~~~--------------------------------------------| x4

Pre-chorus:
e|----------------|----------------------------------------------|
B|----------------|----------------------------------------------|
G|----------------|----------------------------------------------|
D|-\\\\\\\\\\\\\--|-5------7-------------------------------------|
A|-\\PICKSLIDE\\--|-5-x16--7-x16---------------------------------|
E|-\\\\\\\\\\\\\\-|-3------5-------------------------------------| x2

Chorus:
e|---------------------------------------------------------------|
B|---------------------------------------------------------------|
G|-----------7----------7----------------------------------------|
D|---9-------7---7------7---7------------------------------------|
A|---9-x16---5---7-x5---5---7-(Rest of the bar)------------------|
E|---7-----------5----------9------------------------------------| x2

-OR-

Some people might find this version of the chorus easier to play since you don't have to
go up a string.
e|---------------------------------------------------------------|
B|---------------------------------------------------------------|
G|---------------------------------------------------------------|
D|---9-------12---7------12---7----------------------------------|
A|---9-x16---12---7-x5---12---7-(Rest of the bar)----------------|
E|---7-------10---5------10---9----------------------------------| x2

Annnnnnd that's just about it!

Here's the song setup:
-----------
Intro (No guitar)
Verse
Pre-chorus
Chorus
Verse (6 times instead of 4.)
Pre-chorus
Chorus x2

            
            
Suggest correction
Creating personal tab
Creating personal tab
You can edit any tab online and save it as your Personal.

You can edit, replace or remove any tab part or add personal notes – all changes will be seen only by you.

Personal tabs can be accessed anytime from any device, even offline.
Learn more »
comments
print report bad tab
3 comments total.
0 reply
Ellay 10 Mar 31, 2013 12:19 PM

finally masked intruder tabs

+1 reply
bmwilcox 10 Jul 04, 2014 08:57 PM

spot on tab, except during the chorus where you have:
e|---------------------------------------------------------------|
B|---------------------------------------------------------------|
G|-----------7----------7----------------------------------------|
D|---9-------7---7------7---7------------------------------------|
A|---9-x16---5---7-x5---5---7-(Rest of the bar)------------------|
E|---7-----------5----------9------------------------------------|

i think should be:
e|---------------------------------------------------------------|
B|---------------------------------------------------------------|
G|-----------7----------7----------------------------------------|
D|---9-------7---7------7---9------------------------------------|
A|---9-x16---5---7-x5---5---9-(Rest of the bar)------------------|
E|---7-----------5----------7------------------------------------|

-1 reply
Wthansucks 10 Feb 01, 2015 08:12 PM

This shit sucks!! Completely incorrect! Whoever wrote this is probably in a crappy band and cany win at bombsquad

guest
You may want to rate the tab now too:
select rating
Wanna post a correction for this tab? Suggest correction