Oops, an error
Loading. Please wait.

Delusionalism tab

484 views 12 this week
2 commentsread comments
1 2 3 4 5
x 4
add to favorites
×
Save as Personal and add changes to this tab that will be seen only by you. Learn more ›
×
You can save this tab as Personal to edit and correct it or add notes. All changes will be seen only by you. Learn more »
launch autoscroll
font size
0
reset
how to read this tab
guitar tuner
edit
Autoscroll
slow
fast
+/-
esc
set tempo
stop
Author
Artist: Mass of the Fermenting Dregs
Album: Mass of the Fermenting Dregs
Song: Delusionalism


The whole song is mainly B and Em.
The song starts with a repeated B power chord on bass, then the guitar comes in on B (CLEAN)


[Verse]
 
(Clean)

B                       Em
Sō wanai kōkei ga (ooo) yahyahyahyahyah
B                       Em
Sō wanai senmeina (ooo) yahyahyahyahyah
B                              Em
Dō nattatte ī yo sawaru imi mo naishi
B                             Em
Itchatte mo ī yo awasu imi mo naishi 


[Pre-Chorus one]

(Clean)

staccato. . . . . . . .
e|-----------------------|
B|-----------------------|
G|--------11--11--11--11-|
D|------9---9---9---9----|
A|-----------------------|
E|-----------------------|


[Chorus]

(Distortion/Fuzz)

Em         B
kōkai o se ni oe
Em                       B
Kirau, warau, hirou risō ni make


[Post-Chorus] 

(Clean)

B 

(listen to song for timing and syncopation)


[Verse] 

(Clean)

B                         Em
shōganai `dōse mata (ooo) yahyahyahyahyah
B                           Em
Kyōmi wa nai tōzen sa (ooo) yahyahyahyahyah
B                                
Nokkatchatte ī no? Akai seki no ato de


[Pre-Chorus two] 

(Clean)

(let notes ring-------------------------)
e|---------------------------------------|
B|-----7------------------0--------------|
G|-------8------------------0------------|
D|---------------------------------------|
A|---9------------------2----------------|
E|-7------------------0------------------|

e|-------------------------------------------------7-7-7-7-7-7-7-7-|
B|-------------------------------------------------7-7-7-7-7-7-7-7-|
G|---------------------------------8-8-8-8-8-8-8-8-8-8-8-8-8-8-8-8-|
D|-----------------9-9-9-9-9-9-9-9-9-9-9-9-9-9-9-9-9-9-9-9-9-9-9-9-|
A|-9-9-9-9-9-9-9-9-9-9-9-9-9-9-9-9-9-9-9-9-9-9-9-9-9-9-9-9-9-9-9-9-|
E|-7-7-7-7-7-7-7-7-7-7-7-7-7-7-7-7-7-7-7-7-7-7-7-7-7-7-7-7-7-7-7-7-|


[Chorus]

(Distortion/Fuzz)

Em            B
dokka itte yo i i e i
Em                B
dōka shi terukedo i i e i


[Solo]

(More!! Distortion)

(Part_A)

e|---12----12----12----12---12/14-14-14---12----12----12----12------12/14-14-14-|  
B|------------------------------------------------------------------------------|
G|-12----12----12----12--12-12/14-14-14-12----12----12----12----12--12/14-14-14-|
D|------------------------------------------------------------------------------|
A|------------------------------------------------------------------------------|
E|------------------------------------------------------------------------------|
                                                                                     x2
e|-11br-11--------------------------11br-11-------------------------|
B|---------12---10--10--10-10-12-12---------12---10--10--10-10-7-7--|
G|------------------------------------------------------------------|
D|------------------------------------------------------------------|
A|------------------------------------------------------------------|
E|------------------------------------------------------------------|

(Part_B)

e|-19-19--15-15--14-14--12-12-12p14h12-11-12--19--19--15-15--14-14--12-12-12h14p12-11-12-|
B|---------------------------------------------------------------------------------------|
G|---------------------------------------------------------------------------------------|
D|---------------------------------------------------------------------------------------|
A|---------------------------------------------------------------------------------------|
E|---------------------------------------------------------------------------------------|
                                                                                             x4
(hold notes)
e|-11------11/14------14/11--------11/14-----------|
B|-------------------------------------------------|
G|-------------------------------------------------|
D|-------------------------------------------------|
A|-------------------------------------------------|
E|-------------------------------------------------|

(Ends on syncopated hits of a B chord)


************************************
| h   Hammer-on
| p   Pull-off
| br  Bend release
| /   Slide up
************************************

            
            
Suggest correction
Creating personal tab
Creating personal tab
You can edit any tab online and save it as your Personal.

You can edit, replace or remove any tab part or add personal notes – all changes will be seen only by you.

Personal tabs can be accessed anytime from any device, even offline.
Learn more »
comments
print report bad tab
2 comments total.
0 reply
akunohana20151 40 May 12, 2016 10:16 AM

thanks so much for tabbing out and uploading this, including the Romaji too ! Excellent work !

0 reply
BluKek 10 Mar 19, 2017 02:06 AM

THANK YOU! This tab is awesome!

guest
You may want to rate the tab now too:
select rating
Wanna post a correction for this tab? Suggest correction