Oops, an error
Loading. Please wait.

Warhead tab

88 views 1 this week
no commentswrite comment
1 2 3 4 5
3 more votes to show rating
add to favorites
×
Save as Personal and add changes to this tab that will be seen only by you. Learn more ›
×
You can save this tab as Personal to edit and correct it or add notes. All changes will be seen only by you. Learn more »
launch autoscroll
font size
0
reset
how to read this tab
guitar tuner
edit
Autoscroll
slow
fast
+/-
esc
set tempo
stop
Artist: Massacre
Song: Warhead
Album: From Beyond
Year: 1991
Tabbed by: antichris666

Tuning: D G C F A D

 Intro
D|---------------------------------------------------------------------------------|
A|---------------------------------------------------------------------------------|
F|----------9-8-7--------------9-8-7----------------9-8-7--------------9-8-7-------|
C|-9------9--------7----9----9--------7----9------9--------7----9----9--------7----|
G|-7----7---------------7------------------7----7---------------7------------------|
D|-0--------------------0------------------0--------------------0------------------|

 Chorus
D|------------------------------------------------------------------------|
A|------------------------------------------------------------------------|
F|------------------------------------------------------------------------|
C|--------3-3-4-------------------------------3-3-4-----------------------|
G|-4--3---1-1-2--5----3-3-3-3-3-3-3-3--4--3---1-1-2--5----3-3-3-3-3-3-3-3-|
D|-2--1----------3----1-1-1-1-1-1-1-1--2--1----------3----1-1-1-1-1-1-1-1-|
                      · · · · · · · ·                     · · · · · · · ·
   Warhead!                            Warhead!

 Verse
D|------------------------------------------------------------------------------|
A|------------------------------------------------------------------------------|
F|------------------------------------------------------------------------------|
C|--------------4-5------------------------------------4-5----------------------|
G|------5-7-----------------3-5----------------5-7-----------------3-5----------|
D|-0-0-------0-------0-0-0-------0--3-2---0-0-------0-------0-0-0-------0--3-2--|
   · ·       ·       · · ·       ·        · ·       ·       · · ·       ·

 Outro
D|------------------|
A|------------------|
F|------------------|
C|------------------|
G|-2----2----2----2-|
D|-0----0----0----0-|

 
 Warhead - hear the thunder roar
 Warhead - unite the lightning whore

 Power burning - hell & man
 raging torment - take my hand
 frenzied motions - reach your soul
 dance the warhead - fast or slow

 Warhead - hear the thunder roar
 warhead - unite the lightning whore

 Born of thunder
 raised by fire
 call the heavens
 by desire

 Warhead - hear the thunder roar
 Warhead - unite the lightning whore

 Screaming furnace - death of life
 demons calling - chosen wives
 sabbats charming - out in lust
 chance the warhead - win or bust

 Warhead - hear the thunder roar
 Warhead - unite the lightning whore
 Warhead - engraved on flesh & bone
 Warhead - born of mortal stone


************************************

| ·   palm mute
| /   slide up
| \   slide down
| h   hammer-on
| p   pull-off
| ~   vibrato
| +   harmonic
| x   Mute note
| b   Bend
| pb  Pre-bend
| br  Bend release
| pbr Pre-bend release
| brb Bend release bend

************************************

            
            
Suggest correction
Creating personal tab
Creating personal tab
You can edit any tab online and save it as your Personal.

You can edit, replace or remove any tab part or add personal notes – all changes will be seen only by you.

Personal tabs can be accessed anytime from any device, even offline.
Learn more »
Give kudos to tab author, rate the tab!
1 2 3 4 5
comments
print report bad tab
guest
You may want to rate the tab now too:
select rating
Wanna post a correction for this tab? Suggest correction