Oops, an error
Loading. Please wait.

Joseph Merrick bass

version 1
version 1

Whole song

Interactive

1,405 views 1 this week
no commentswrite comment
1 2 3 4 5
1 last vote to show rating
add to favorites
×
Save as Personal and add changes to this tab that will be seen only by you. Learn more ›
×
You can save this tab as Personal to edit and correct it or add notes. All changes will be seen only by you. Learn more »
launch autoscroll
font size
0
reset
guitar tuner
backing track
0:00
0:00
edit
Autoscroll
slow
fast
+/-
esc
set tempo
stop
Song: Joseph Merrick
Band: Mastodon
Tabbed by: unspeakable.elvis@gmail.com

4-string D-Standard Tuning (Low to high: D G C F)

Legend: 
h       hammer on
p       pull off
/       slide up to note
\       slide down from note
(6)     ghost note


[Acoustic intro]

Bass Part 1
~~~~~~~~~~~

Enter with drums at 0:50

  1 & a 2 & a 3 & a 1 & a 2 & a 3 & a   1 & a 2 & a 3 & a 1 & a 2 & a 3 & a
|-------------------------------------|-------------------------------------|
|-------------------------------------|-------------------------------------|
|-4---------------4-0---------------0-|-4---------------4-0---------------0-|
|-------------------------------------|-------------------------------------|


  1 & a 2 & a 3 & a 1 & a 2 & a 3 & a   1 & a 2 & a 3 & a 1 & a 2 & a 3 & a
|-------------------------------------|-------------------------------------|
|-------------------------------------|-------------------2---------------2-|
|-------------------0---------------0-|-------------------------------------|
|-2-----------2---4-------------------|-0-----------0---0-------------------|


  1 & a 2 & a 3 & a 1 & a 2 & a 3 & a   1 & a 2 & a 3 & a 1 & a 2 & a 3 & a
|-------------------------------------|-------------------------------------|
|-------------------2---------------2-|-------------------------------------|
|-------------------------------------|-------------------0---------------0-|
|-0-----------0---0-------------------|-2-----------2---4-------------------|


  1 & a 2 & a 3 & a 1 & a 2 & a 3 & a   1 & a 2 & a 3 & a 1 & a 2 & a 3 & a
|-------------------------------------|-------------------------------------|
|-------------------------------------|-------------------------0-----------|
|-2---------------2-2---------------2-|-3---------------3-3-----------3-----|
|-------------------------------------|-------------------------------------|


  1 & a 2 & a 3 & a 1 & a 2 & a 3 & a   1 & a 2 & a 3 & a 1 & a 2 & a 3 & a
|-------------------------------------|-------------------------------------|
|-------------------------------------|-------------------------0-----------|
|-2-----------------2-----0-----2-----|-3---------------3-3-----------3-----|
|-----------------3-------------------|-------------------------------------|


  1 & a 2 & a 3 & a 1 & a 2 & a 3 & a   1 & a 2 & a 3 & a 1 & a 2 & a 3 & a
|-------------------------------------|-------------------0---------------0-|
|-------------------------------------|-------------------------------------|
|-1---------------1-1-----1---------1-|-------------------------------------|
|-------------------------------------|-3---------------3-------------------|


  1 & a 2 & a 3 & a 1 & a 2 & a 3 & a   1 & a 2 & a 3 & a 1 & a 2 & a 3 & a
|-------------------------------------|-------------------------------------|
|-------------------------------------|-------------------------------------|
|-------------------------------------|-------------------------------------|
|-3-----------------(let ring)--------|-------------------------------------|

[Short acoustic bit]

Bass Part 2
~~~~~~~~~~~

Then enter with drums again at 1:41

  1 & a 2 & a 3 & a 1 & a 2 & a 3 & a   1 & a 2 & a 3 & a 1 & a 2 & a 3 & a
|-------------------------------------|-------------------------------------|
|-------------------------------------|-------------------------------------|
|-0-----------0---2-3-----------5-----|-6----------(6)\---------------1---3-|
|-------------------------------------|-------------------3-----------------|


  1 & a 2 & a 3 & a 1 & a 2 & a 3 & a   1 & a 2 & a 3 & a 1 - 2 - 3 -
|-------------------------------------|-------------------------------|
|-------------------------------------|-------------------------------|
|-4-----------------------------1---3-|-4-----------------4---6---7\--|
|-------------------3-----------------|-------------------------------|


  1 & a 2 & a 3 & a 1 & a 2 & a 3 & a   1 & a 2 & a 3 & a 1 & a 2 & a 3 & a
|-------------------------------------|-------------------------------------|
|-------------------------------------|-------------------------------------|
|-------------------1---------------1-|-------------------1---------------1-|
|-3---------------3-------------------|-3---------------3-------------------|


  1 - 2 - 3 -
|-------------|
|-------------|
|-0---1---3---|
|-------------|

Then right back to:

Bass Part 1 (with slight variation)
~~~~~~~~~~~

  1 & a 2 & a 3 & a 1 & a 2 & a 3 & a   1 & a 2 & a 3 & a 1 & a 2 & a 3 & a
|-------------------------------------|-------------------------------------|
|-------------------------------------|-------------------------------------|
|-4---------------4-0---------------0-|-4---------------4-0---------------0-|
|-------------------------------------|-------------------------------------|


  1 & a 2 & a 3 & a 1 & a 2 & a 3 & a   1 & a 2 & a 3 & a 1 & a 2 & a 3 & a
|-------------------------------------|-------------------------------------|
|-------------------------------------|-------------------2---------------2-|
|-------------------0-----------------|-------------------------------------|
|-2-----------2---4-------------------|-0-----------0---0-------------------|


  1 & a 2 & a 3 & a 1 & a 2 & a 3 & a   1 & a 2 & a 3 & a 1 & a 2 & a 3 & a
|-------------------------------------|-------------------------------------|
|-------------------2---------------2-|-------------------------------------|
|-------------------------------------|-------------------0---------------0-|
|-0-----------0---0-------------------|-2-----------2---4-------------------|


  1 & a 2 & a 3 & a 1 & a 2 & a 3 & a   1 & a 2 & a 3 & a 1 & a 2 & a 3 & a
|-------------------------------------|-------------------------------------|
|-------------------------------------|-------------------------0-----------|
|-2---------------2-2---------------2-|-3---------------3-3-----------3-----|
|-------------------------------------|-------------------------------------|


  1 & a 2 & a 3 & a 1 & a 2 & a 3 & a   1 & a 2 & a 3 & a 1 & a 2 & a 3 & a
|-------------------------------------|-------------------------------------|
|-------------------------------------|-------------------------0-----------|
|-2-----------------2-----0-----2-----|-3---------------2-3-----------3-----|
|-----------------3-------------------|-------------------------------------|


  1 & a 2 & a 3 & a 1 & a 2 & a 3 & a   1 & a 2 & a 3 & a 1 & a 2 & a 3 & a
|-------------------------------------|-------------------------------------|
|-------------------------------------|-------------------------------------|
|-1---------------1-1-----1---------1-|-------------------------------------|
|-------------------------------------|-3---------------3-3---------------3-|


  1 & a 2 & a 3 & a 1 & a 2 & a 3 & a   1 & a 2 & a 3 & a 1 & a 2 & a 3 & a
|-0-----------------------------------|-------------------------------------|
|-------------------------------------|-------------------------------------|
|-------------------------------------|-------------------------------------|
|-------------------------------------|-------------------------------------|

[Acoustic outro]

End.

            
            
Suggest correction
Creating personal tab
Creating personal tab
You can edit any tab online and save it as your Personal.

You can edit, replace or remove any tab part or add personal notes – all changes will be seen only by you.

Personal tabs can be accessed anytime from any device, even offline.
Learn more »
Give kudos to tab author, rate the tab!
1 2 3 4 5
comments
print report bad tab
guest
You may want to rate the tab now too:
select rating
Wanna post a correction for this tab? Suggest correction