Oops, an error
Loading. Please wait.

Call Me tab

1,060 views 1 this week
4 commentsread comments
1 2 3 4 5
2 more votes to show rating
add to favorites
×
Save as Personal and add changes to this tab that will be seen only by you. Learn more ›
×
You can save this tab as Personal to edit and correct it or add notes. All changes will be seen only by you. Learn more »
launch autoscroll
font size
0
reset
how to read this tab
guitar tuner
edit
Autoscroll
slow
fast
+/-
esc
set tempo
stop
-------------------------------------------------------------------------------
                             Call Me - Mat Kearney                         
-------------------------------------------------------------------------------
Tabbed by:Relientk_v_fan
Email:

Tuning:Full Step Down

  Intro
D|---------------------------------------------------------------------------|
A|---2-----2--0h2-3-2------2-----2--0h2-2-3-2-3--7---7--5---5--0---0--5------|
F|---------------------------------------------------------------------------|
C|---0--0--0--0------------0--0--0--0------------0--0---0--0---0--0---0------|
G|---------------------------------------------------------------------------|
D|---------------------------------------------------------------------------|

Verse x2
D|---------------------------------------------------------------------------|
A|---2-----2--0h2-3-2------2-----2--0h2-----2-----2--0h2-3-2-3---------------|
F|---------------------------------------------------------------------------|
C|---0--0--0--0------------0--0--0--0-------0--0--0--0-----------------------|
G|---------------------------------------------------------------------------|
D|---------------------------------------------------------------------------|


D|---------------------------------------------------------------------------|
A|--7---7--5---5--0---0--5---------------------------------------------------|
F|---------------------------------------------------------------------------|
C|--0--0---0--0---0--0---0---------------------------------------------------|
G|---------------------------------------------------------------------------|
D|---------------------------------------------------------------------------|

  Chorus x 6
D|---5-----5-4-----4-4-----4-5----5------------------------------------------|
A|-------5-------5-------5------5--------------------------------------------|
F|---------------------------------------------------------------------------|
C|---0-0-----0-0-----0-0-----0-0---------------------------------------------|
G|---------------------------------------------------------------------------|
D|---------------------------------------------------------------------------|

    Verse x2
    Chorus x4

  Riff after the second chorus  "These scars upon my..." () on the last one
D|---------------------------------------------------------------------------|
A|--5---5-0---0-0--0-2---2p0-------------------------------------(2)---------|
F|----------------------------------X4---------------------------------------|
C|--0-0---0-0---0-0--0-0-----------------------------------------(0)---------|
G|---------------------------------------------------------------------------|
D|---------------------------------------------------------------------------|

  Chorus X6


That's it. Hope you enjoy it. Please any questions, corrections, or comments and God Bless



            
            
Suggest correction
Creating personal tab
Creating personal tab
You can edit any tab online and save it as your Personal.

You can edit, replace or remove any tab part or add personal notes – all changes will be seen only by you.

Personal tabs can be accessed anytime from any device, even offline.
Learn more »
Give kudos to tab author, rate the tab!
1 2 3 4 5
comments
print report bad tab
4 comments total. Showing first comments.
0 reply
RelientK_V_Fan 133 Sep 03, 2010 04:42 PM

Honestly, I play this with the song and its pretty much right on the money if you tune it right so I don't know whats witht he one star

0 reply
Teker 10 Feb 22, 2013 01:15 PM

Hey man was messing around with your tab. It does seem pretty good when tuned down. I would try adding the the 2nd fret on the F. it sounds better to me this way check it out and see. First time I ever offered a suggestion so I could be way off.

D|---------------------------------------------------------------------------|
A|---2-----0h2---3-2-0h2-----2-----0h2---3-2-0h2-------7---7--5---5--0---0--5------|
F|------2---------------------2----------------------------------------------|
C|---0-----0---------------0-----0-------------0-----0---0--0---0--0---0------|
G|---------------------------------------------------------------------------|
D|---------------------------------------------------------------------------|

0 reply
Teker 10 Feb 22, 2013 01:27 PM

Ok the first post I messed up I believe this is right now or close enough to get the idea of what I am saying.

D|---------------------------------------------------------------------------|
A|-2-----0h2-3-2-0h2-----0h2---3-2-0h2-----0h2-3-3-7---7--5---5--0---0--5------|
F|----2--------------2-----------------2-----------------------------|
C|-0-----0-------0-------0---------0----------------0---0---0--0---0---0---0|
G|---------------------------------------------------------------------------|
D|---------------------------------------------------------------------------|

guest
You may want to rate the tab now too:
select rating
Wanna post a correction for this tab? Suggest correction