Oops, an error
Loading. Please wait.

Wait intro tab

version 1
version 1

Intro

1,866 views 1 this week
2 commentsread comments
1 2 3 4 5
x 3
add to favorites
×
Save as Personal and add changes to this tab that will be seen only by you. Learn more ›
×
You can save this tab as Personal to edit and correct it or add notes. All changes will be seen only by you. Learn more »
launch autoscroll
font size
0
reset
how to read this tab
guitar tuner
edit
Autoscroll
slow
fast
+/-
esc
set tempo
stop
"Wait"- Mat Kearney
This might not be right, but it is the way that I play it. Really good song, easy to play.

Standard tuning
e|-----------------------------------------------------------|
B|-----------------------------------------------------------|
G|0---0-0--0---0---0--------------0--0-0---0-0---------0-----|
D|--8-----8------8-----8s6-5-6--8---8----8-----8s6-5-8-------|
A|-----------------------------------------------------------|
E|-----------------------------------------------------------|


Or you could play it like this:
e|-----------------------------------------------------------|
B|-----------------------------------------------------------|
G|0---0-0--0---0---0--------------0--0-0---0-0-----------0---|
D|--8-----8------8-----10s8-7-8--8---8----8-----10s8-7-8-----|
A|-----------------------------------------------------------|
E|-----------------------------------------------------------|

Please write whatever you feel about the tab!

            
            
Suggest correction
Creating personal tab
Creating personal tab
You can edit any tab online and save it as your Personal.

You can edit, replace or remove any tab part or add personal notes – all changes will be seen only by you.

Personal tabs can be accessed anytime from any device, even offline.
Learn more »
Give kudos to tab author, rate the tab!
1 2 3 4 5
comments
print report bad tab
2 comments total.
0 reply
guitardude144 1,599 May 12, 2007 06:09 AM

Oh yeah, make sure you listen to song to get the right timing..,

0 reply
jnix 21 Jul 05, 2010 04:31 PM

sorry bud, but that's just off a half step the whole way. this is correct. no offense, but you should get your ears checked.

e|-----------------------------------------------------------|
B|-----------------------------------------------------------|
G|0---0-0--0---0---0-----------0---0--0-0---0-0---------0----|
D|--9-----9------9-----7s5-4-5---9---9----9----7s5-4-9-------|
A|-----------------------------------------------------------|
E|-----------------------------------------------------------|

guest
You may want to rate the tab now too:
select rating
Wanna post a correction for this tab? Suggest correction