Oops, an error
Loading. Please wait.

Wont Back Down chords

version 2
version 2

Whole song

23,846 views 6 this week
4 commentsread comments
1 2 3 4 5
1 last vote to show rating
add to favorites
×
Save as Personal and add changes to this tab that will be seen only by you. Learn more ›
×
You can save this tab as Personal to edit and correct it or add notes. All changes will be seen only by you. Learn more »
launch autoscroll
font size
0
reset
transpose
0
reset
simplify chords
display chords
guitar tuner
edit
Autoscroll
slow
fast
+/-
esc
set tempo
stop
Author
Difficulty
Strumming
There is no strumming pattern for this song yet. and get +5 IQ
Tabbed by: Chris Hay
Email: fighting4god@gmail.com
Comments/corrections welcome

Here is the easiest and most accurate way to play this song on guitar. If you want to 
it on piano then see the other tab for it on this site.

Eb tuning: (Eb-Ab-Db-Gb-Bb-eb)

Chords used in this song:
    G   D2 Am7 Esus4 Cmaj7 Em  
  G2  C   G5 Gsus2 Dsus4/F# G5/E
eb|-3---0---0----0-----3---0---2---3---0---3----3------3------3--|
Bb|-0---7---1----0-----0---0---3---0---1---3----3------3------3--|
Gb|-0---7---0----2-----0---0---2---2---0---0----2------2------0--|
Db|-0---0---2----2-----2---2---0---0---2---0----0------0------2--|
Ab|-2---0---0----2-----3---2---x---x---3---x----x------0------x--|
Eb|-3---x---x----0-----x---0---x---3---x---3----3------2------x--|

VERSE 1:
G                  D2
  You woke the morning up
                Am7
Running off my darkest night
                         Esus4
The longest light I've seen
G                     D2
  Here goes a chance I know
               Am7
Cashing in on all my chips
                   Esus4
Let all my ships come fly

PRECHORUS 1:
       Cmaj7              Em             D
These days, a little bit longer than the last
                Cmaj7                 Em              D
And all of these ways, a little bit stronger than the past
        Cmaj7          Em           D
And your light, found my bottle in the night
Em              D    Em               D2
Gave me second life, kept me in this fight

CHORUS:
       G2         D2
And I won't back down
   G2          C
I won't turn around and around
       G2         D2
And I won't back down
        C
Doesn't matter what comes crashing down
     Em                  D
I'm still gonna stand my solid ground

INSTRUMENTAL:
Gsus2 G Gsus2 G5
Gsus2 G Gsus2

VERSE 2:
G                        D2
  You found me once and for all
                       Am7
I laid it down in the sinking ground
                   Esus4
The hopeless undertow
G                     D2
  Singing out the gentle sound
                   Am7
Rattling through my smoking screens
                   Esus4
My broken dreams last night

PRECHORUS 2:
       Cmaj7              Em             D
These days, a little bit longer than the last
               Cmaj7                 Em              D
And all of your ways, a little bit stronger than the past
               Cmaj7          Em           D
And all of your light, found my bottle in the night
Em               D     Em              D2
Kept me in this fight, gave me second life

[CHORUS]

INSTRUMENTAL:
Gsus2 G Gsus2 G5
Gsus2 G Gsus2 G5

BRIDGE:
Dsus4/F#  G   Dsus4/F#           G5/E
Hallelu - jah ripped through my veins
  Dsus4/F#         G
I heard the hammer drop
   Dsus4/F#      G5/E
My blood in the rain
Dsus4/F#  G   Dsus4/F#     G5/E
Hallelu - jah came like a train
     Dsus4/F# G
When all is   lost
Dsus4/F#        Em D2
All is left to gain

[CHORUSx2]

OUTRO:
Dsus4/F#  G
Dsus4/F#  G5/E

            
            
Suggest correction
Creating personal tab
Creating personal tab
You can edit any tab online and save it as your Personal.

You can edit, replace or remove any tab part or add personal notes – all changes will be seen only by you.

Personal tabs can be accessed anytime from any device, even offline.
Learn more »
Give kudos to tab author, rate the tab!
1 2 3 4 5
comments
print report bad tab
4 comments total. Showing first comments.
0 reply
cheesegrater 63 May 12, 2007 07:25 PM

UG messed up my chord diagram for some reason. Here's what it should look like:

Chords used in this song:
G D2 Am7 Esus4 Cmaj7 Em D G2 C G5 Gsus2 Dsus4/F# G5/E
eb|-3---0---0----0-----3---0---2---3---0---3----3------3------3--|
Bb|-0---7---1----0-----0---0---3---0---1---3----3------3------3--|
Gb|-0---7---0----2-----0---0---2---2---0---0----2------2------0--|
Db|-0---0---2----2-----2---2---0---0---2---0----0------0------2--|
Ab|-2---0---0----2-----3---2---x---x---3---x----x------0------x--|
Eb|-3---x---x----0-----x---0---x---3---x---3----3------2------x--|

0 reply
cheesegrater 63 May 12, 2007 07:46 PM

OK, it messed them up that time as well. I'll try again:

Chords used in this song:
G D2 Am7 Esus4 Cmaj7 Em D G2 C G5 Gsus2 Dsus4/F# G5/E
eb|-3---0---0----0-----3---0---2---3---0---3----3------3------3--|
Bb|-0---7---1----0-----0---0---3---0---1---3----3------3------3--|
Gb|-0---7---0----2-----0---0---2---2---0---0----2------2------0--|
Db|-0---0---2----2-----2---2---0---0---2---0----0------0------2--|
Ab|-2---0---0----2-----3---2---x---x---3---x----x------0------x--|
Eb|-3---x---x----0-----x---0---x---3---x---3----3------2------x--|

0 reply
guitardude144 1,599 May 13, 2007 05:27 AM

Chords used in this song:
G D2 Am7 Esus4 Cmaj7 Em D G2 C G5 Gsus2 Dsus4/F# G5/E
eb|-3---0---0----0-----3---0---2---3---0---3----3------3------3--|
Bb|-0---7---1----0-----0---0---3---0---1---3----3------3------3--|
Gb|-0---7---0----2-----0---0---2---2---0---0----2------2------0--|
Db|-0---0---2----2-----2---2---0---0---2---0----0------0------2--|
Ab|-2---0---0----2-----3---2---x---x---3---x----x------0------x--|
Eb|-3---x---x----0-----x---0---x---3---x---3----3------2------x--|

guest
You may want to rate the tab now too:
select rating
Wanna post a correction for this tab? Suggest correction