Oops, an error
Loading. Please wait.

If You're Gone tab

version 2
version 2

Whole song

Interactive

12,444 views 6 this week
2 commentsread comments
1 2 3 4 5
x 4
add to favorites
×
Save as Personal and add changes to this tab that will be seen only by you. Learn more ›
×
You can save this tab as Personal to edit and correct it or add notes. All changes will be seen only by you. Learn more »
launch autoscroll
font size
0
reset
how to read this tab
guitar tuner
edit
Autoscroll
slow
fast
+/-
esc
set tempo
stop
Difficulty
Hey guys this is my first tab, but I studied this song for a while and found that this 
part sounds really close if its not totally right.
Good luck:)

"I think I've already lost you"
(------0--5--7--5--0--)
(----5-------------5--)
(---------------------)
(---------------------)
(---------------------)
(---------------------)

"I think your already gone"

"I think I'm finally scared now"
(------0--5--7--5--2--)
(----5-------------3--)
(---------------------)
(---------------------)
(---------------------)
(---------------------)

"YOU think i'm weak, but I think your wrong"
(---------------2-----------------------0--)
(---------------3-----------------------0--)
(------------------------------------------)
(------------------------------------------)
(------------------------------------------)
(------------------------------------------)

"I think your already leaving"
(------0--5--7--5--0--)
(----5-------------5--)
(---------------------)
(---------------------)
(---------------------)
(---------------------)

"feals like your hand is on the door"


"I thought this place was an empire"
(------0--5--7--5--2--)
(----5-------------3--)
(---------------------)
(---------------------)
(---------------------)
(---------------------)

"but now I'm relaxed,I cant be sure"
(---------------2---------------0----------)
(---------------3---------------0----------)
(------------------------------------------)
(------------------------------------------)
(------------------------------------------)
(------------------------------------------)


                       Bm                       E
And I think you're so mean - I think we should try
                 A                 D
 I think I could need - this in my life
                  Bm                   E
 I think I'm just scared - I think too much
   G
 I know it's wrong it's a problem I'm dealing with


Chorus:
          A                            D                E
 If you're gone - maybe it's time to go home
            Bm                        E
 There's an awful lot of breathing room
                  A       E
 But I can hardly move
           A                            D               E
 If you're gone - baby you need to come home
               Bm                      E
 Cos there's a little bit of something me
                  A   BM  D  E
 In everything in you
Verse 2:

A                         D
 I bet you're hard to get over
A          E               D
 I bet the room just won't shine
A                     D
 I bet my hands I can stay here
           Bm                   E
 I bet you need - more than you mind
Pre Chorus:
                       Bm                        E
 And I think you're so mean - I thinnk we should try
                 A                 D
 I think I could need - this in my life
                  Bm                       E
 I think I'm just scared - that I know too much
   G (P.M.)
 I can't relate and that's a problem I feeling
Chorus:
           A                            D              E
 If you're gone - maybe it's time to go home
            Bm                     E
 There's an awful lot of breathing room
                  A
 But I can hardly move
           A                            D              E
 If you're gone - baby you need to come home
               Bm                        E
 Cos there's a little bit of something me
                  Bm
 In everything in you
Instrumental solo tabbed for guitar:
    A       D        E       Bm
(--10---7--------------------------------------------|
(----------9--7--9--10-------------------------------|
(-----------------------9---7--10--9--7--------------|
(----------------------------------------9-----7--9--|
(----------------------------------------------------|
(----------------------------------------------------|
  E      A
(10--7-------------------|
(-------9--10--10--------|
(------------------------|
(------------------------|
(------------------------|
(------------------------|


Pre Chorus:
                       Bm                       E
 And I think you're so mean - I think we should try
                 A                 D
 I think I could need - this in my life
                  Bm                     E
 I think I'm just scared - do I talk too much


 I know it's wrong it's a problem I dealing
Chorus:
         A                            D                   E
 If your gone - maybe it's time to go home
            Bm                     E
 There's an awful lot of breathing room
                  A
 But I can hardly move
           A                            D
 If you're gone - baby you need to come home
               Bm                        E
 Cos there's a little bit of something me
               A  E   (play intro riff until end)
 In everything in you
A               E
 Something in me
            A
 Everything in
               E
 Something in me
    A
 In you

            
            
Suggest correction
Creating personal tab
Creating personal tab
You can edit any tab online and save it as your Personal.

You can edit, replace or remove any tab part or add personal notes – all changes will be seen only by you.

Personal tabs can be accessed anytime from any device, even offline.
Learn more »
comments
print report bad tab
2 comments total.
-1 reply
sguitar 894 Jul 10, 2009 12:28 PM

(------5-----7--5--2--)
(----5----5--------5--)
(---------------------)
(---------------------)
(---------------------)
(---------------------)
think it goes like this...

0 reply
ninja_cupcakes4 176 Sep 14, 2013 03:11 PM

i think instead of
|-2-|
|-5-|

|-0-|
|-3-|

guest
Wanna post a correction for this tab? Suggest correction