Oops, an error
Loading. Please wait.
We have an official Push tab made by UG professional guitarists. Check out the tab »
×
4,723 views 3 this week
no commentswrite comment
1 2 3 4 5
1 last vote to show rating
add to favorites
×
Save as Personal and add changes to this tab that will be seen only by you. Learn more ›
×
You can save this tab as Personal to edit and correct it or add notes. All changes will be seen only by you. Learn more »
launch autoscroll
font size
0
reset
how to read this tab
guitar tuner
edit
Autoscroll
slow
fast
+/-
esc
set tempo
stop
Matchbox Twenty (20)
"Push"
Tabbed by Chris from the band - From Day One -


Nobody had the correct solo for this song tabbed out. No idea why but here it is. This 
is in the key that the album is recorded in.

This mini solo comes in after the first chorus, before the second verse.


E-------------------------------------------------|
B---------------------------------------7-9p7v----|
G-----6------------------------6-----8------------|
D--4-----6s8--4-------------4-----8---------------|
A----------------6--4-----4-----------------------|
E-------------------------------------------------|

If you play the song in G, as shown on some of the tabs here, the solo would go like this:

E-----------------------------------------------|
B-------------------------------------8-10p8v---|
G-----7----------------------7-----9------------|
D--5-----7s9--5-----------5-----9---------------|
A----------------7--5---5-----------------------|
E-----------------------------------------------|


Note:
The album version seems to be recorded a half step lower if you are playing in G with 
standard tuning. Sounds fine either way.

            
            
Suggest correction
Creating personal tab
Creating personal tab
You can edit any tab online and save it as your Personal.

You can edit, replace or remove any tab part or add personal notes – all changes will be seen only by you.

Personal tabs can be accessed anytime from any device, even offline.
Learn more »
Give kudos to tab author, rate the tab!
1 2 3 4 5
comments
print report bad tab
guest
You may want to rate the tab now too:
select rating
Wanna post a correction for this tab? Suggest correction