Oops, an error
Loading. Please wait.

Real World tab

version 5
version 5

Whole song

Interactive

6,823 views 1 this week
no commentswrite comment
1 2 3 4 5
3 more votes to show rating
add to favorites
×
Save as Personal and add changes to this tab that will be seen only by you. Learn more ›
×
You can save this tab as Personal to edit and correct it or add notes. All changes will be seen only by you. Learn more »
launch autoscroll
font size
0
reset
how to read this tab
guitar tuner
edit
Autoscroll
slow
fast
+/-
esc
set tempo
stop
Author
Difficulty
Real World

Song is in Bb, but played with open A tuned down 1/2 step

However, my band plays it in C  ;)  (Chick singer)   Hope you can adjust


Drum intro is tricky -

Intro lick - Song is in C, but this riff is on a Am (or Am7)
------------------------------------------------------------------------|
------------------------------------------------------------------------|
------------------------------------------------------------------------|
----5-h--7--5-----------------------------------------------------------|
-----------------7-p-5--------------------------------------------------|
------------------------8-----------------------------------------------|


Verses

c  G G  Abm(7?)   F  G  C



Chorus

C   F  G  F   C

Solo 1

------13------------------------------------------------------------|
------11-...  Really difficult LOL----------------------------------|
---------------But use all up-strokes-------------------------------|
---------------to-get the right tone--------------------------------|
----------------Try to only very lightly touch the '11'-------------|
--------------------------------------------------------------------|


Little bridge ("Please don't change...")

  Am               C       Then Am & C again w/o the walk down
                           Repeat
--------------------------------------------------------------------------|
--------------------------------------------------------------------------|
--------------------------------------------------------------------------|
--7--7--7----7-\5--5------------------------------------------------------|
--7--7--7----7-\5--3------------------------------------------------------|
--------------------------------------------------------------------------|




Solo 2
-----------------------------------------------------------------------------|
------------------------Obviously not the right timing, Not drawing----------|
---5-/-7--/--9-\-5---5-/-7--/-9-all that!  They're the right notes-----------|
---5-/-5--/--7-\-3---5---5--/-7----------------------------------------------|
-----------------------------------------------------------------------------|
-----------------------------------------------------------------------------|

---5----7---8----3---5---7--8---10--12--(or 15)---------------------|
---6----8---10---5---6---8--10--12--13--(---13)---------------------|
--------------------------------------------------------------------|
--------------------------------------------------------------------|
--------------------------------------------------------------------|
--------------------------------------------------------------------|



End run same as beginning but end on A, not on C!!!

            
            
Suggest correction
Creating personal tab
Creating personal tab
You can edit any tab online and save it as your Personal.

You can edit, replace or remove any tab part or add personal notes – all changes will be seen only by you.

Personal tabs can be accessed anytime from any device, even offline.
Learn more »
Give kudos to tab author, rate the tab!
1 2 3 4 5
comments
print report bad tab
guest
You may want to rate the tab now too:
select rating
Wanna post a correction for this tab? Suggest correction