Oops, an error
Loading. Please wait.

Say 18 bass

by Matches
107 views 1 this week
no commentswrite comment
1 2 3 4 5
3 more votes to show rating
add to favorites
×
Save as Personal and add changes to this tab that will be seen only by you. Learn more ›
×
You can save this tab as Personal to edit and correct it or add notes. All changes will be seen only by you. Learn more »
launch autoscroll
font size
0
reset
guitar tuner
edit
Autoscroll
slow
fast
+/-
esc
set tempo
stop
 __________________      ___         ___      _______________
|_______     ______|    |   |       |   |    |   ____________|
        |   |           |   |       |   |    |   |
        |   |           |   |  Say  |   |    |   |
        |   |           |   |_______|   |    |   |______       
        |___|           |_______________|    |__________|    
         ___             ___         ___      ___         
        |   |           |   |       |   |    |   |___________
        |___|           |___|       |___|    |_______________|
                             MATCHES          18

Here's the downlow... Yes I am copying
and pasting from another site- but these
are my tabs from MXtabs when that was
still up! sooooo... it's not really plagerism...
If you do not believe me- just look at the 
rambles at the top, and all the ...'s!
I just dont feel like figuring out 
all these songs out again haha...

Best Song EVER! The Matches do it everytime...
Anyway, Basically this song is about this guy
Thats wants this girl... because shes a whore... 
but he's not sure if shes 18... and its just awesome
really easy song... like I was surpirzed because 
The Matches usally have like... awesome bass parts
for punk... its still better then most punk...
Alright now im just rambling...

G|-----------------------|
D|-----------------------|2x
A|-----------------------|
E|33-55-33-55-33-55-33-55|

(First verse no bass)

G|------------------------------------|
D|------------------------------------|
A|-------------------33333333-33333333|
E|11111111-11-334455------------------|

G|-----------------------|
D|-----------------------|2x
A|-----------------------|
E|33-55-33-55-33-55-33-55|

G|---------------|
D|---------------|4x
A|--------333----|
E|11-1-11-----333|

G|-----------------------------|
D|-----------------------------|
A|33-33-33-33------------------|
E|------------11111111-11111111|

(Second Verse No Bass)

G|-----------------------|
D|-----------------------|2x
A|-----------------------|
E|33-55-33-55-33-55-33-55|

G|------------------------------------|
D|------------------------------------|
A|-------------------33333333-33333333|
E|11111111-11-334455------------------|

G|-----------------------|
D|-----------------------|2x
A|-----------------------|
E|33-55-33-55-33-55-33-55|

G|---------------|
D|---------------|4x
A|--------333----|
E|11-1-11-----333|

G|-----------------------------|
D|-----------------------------|
A|33-33-33-33------------------|
E|------------11111111-11111111|

G|-----------------------|
D|-----------------------|2x
A|-----------------------|
E|33-55-33-55-33-55-33-55|

G|------------------------------|
D|--------------------77777777--|2x
A|11111111-1111-33-55----------3|
E|------------------------------|

G|------------------------------------------------------------|
D|22-22-22-22-------------------------------------------------|
A|------------3-00-00-00-00-11111111-11111111-----------------|
E|--------------------------------------------33333333-3333333|

G|---------------|
D|---------------|8x
A|--------333----|
E|11-1-11-----333|

G|------------------|
D|------------------|4x
A|---------3333-----|
E|11111111------3333|

G|-----------------|
D|-----------------|2x
A|-----------------|
E|11111111-11111111|

G|--|
D|--|
A|33|
E|--|

Alright... Best Song Ever...
or at least one of them...
By the Best Band Ever...
The Matches... and yes they really are
the best band ever... 
~**awfulGoodness**~

            
            
Suggest correction
Creating personal tab
Creating personal tab
You can edit any tab online and save it as your Personal.

You can edit, replace or remove any tab part or add personal notes – all changes will be seen only by you.

Personal tabs can be accessed anytime from any device, even offline.
Learn more »
Give kudos to tab author, rate the tab!
1 2 3 4 5
comments
print report bad tab
guest
You may want to rate the tab now too:
select rating
Wanna post a correction for this tab? Suggest correction